  0
SECTION
  2
HEADER
  9
$ACADVER
  1
AC1014
  9
$ACADMAINTVER
 70
     9
  9
$DWGCODEPAGE
  3
ANSI_1252
  9
$INSBASE
 10
0.0
 20
0.0
 30
0.0
  9
$EXTMIN
 10
0.0
 20
0.0
 30
0.0
  9
$EXTMAX
 10
297.0
 20
210.0
 30
0.0
  9
$LIMMIN
 10
0.0
 20
0.0
  9
$LIMMAX
 10
297.0
 20
210.0
  9
$ORTHOMODE
 70
     0
  9
$REGENMODE
 70
     1
  9
$FILLMODE
 70
     1
  9
$QTEXTMODE
 70
     0
  9
$MIRRTEXT
 70
     1
  9
$DRAGMODE
 70
     2
  9
$LTSCALE
 40
1.0
  9
$OSMODE
 70
    37
  9
$ATTMODE
 70
     1
  9
$TEXTSIZE
 40
2.5
  9
$TRACEWID
 40
1.0
  9
$TEXTSTYLE
  7
STANDARD
  9
$CLAYER
  8
0
  9
$CELTYPE
  6
BYLAYER
  9
$CECOLOR
 62
   256
  9
$CELTSCALE
 40
1.0
  9
$DELOBJ
 70
     1
  9
$DISPSILH
 70
     0
  9
$DIMSCALE
 40
1.0
  9
$DIMASZ
 40
3.0
  9
$DIMEXO
 40
1.0
  9
$DIMDLI
 40
3.75
  9
$DIMRND
 40
0.0
  9
$DIMDLE
 40
0.0
  9
$DIMEXE
 40
1.0
  9
$DIMTP
 40
0.0
  9
$DIMTM
 40
0.0
  9
$DIMTXT
 40
2.5
  9
$DIMCEN
 40
2.5
  9
$DIMTSZ
 40
0.0
  9
$DIMTOL
 70
     0
  9
$DIMLIM
 70
     0
  9
$DIMTIH
 70
     1
  9
$DIMTOH
 70
     1
  9
$DIMSE1
 70
     0
  9
$DIMSE2
 70
     0
  9
$DIMTAD
 70
     1
  9
$DIMZIN
 70
     1
  9
$DIMBLK
  1

  9
$DIMASO
 70
     1
  9
$DIMSHO
 70
     1
  9
$DIMPOST
  1

  9
$DIMAPOST
  1

  9
$DIMALT
 70
     0
  9
$DIMALTD
 70
     3
  9
$DIMALTF
 40
0.0393700787
  9
$DIMLFAC
 40
1.0
  9
$DIMTOFL
 70
     1
  9
$DIMTVP
 40
0.0
  9
$DIMTIX
 70
     0
  9
$DIMSOXD
 70
     0
  9
$DIMSAH
 70
     0
  9
$DIMBLK1
  1

  9
$DIMBLK2
  1

  9
$DIMSTYLE
  2
ISO-25
  9
$DIMCLRD
 70
     0
  9
$DIMCLRE
 70
     0
  9
$DIMCLRT
 70
     0
  9
$DIMTFAC
 40
1.0
  9
$DIMGAP
 40
1.524
  9
$DIMJUST
 70
     0
  9
$DIMSD1
 70
     0
  9
$DIMSD2
 70
     0
  9
$DIMTOLJ
 70
     0
  9
$DIMTZIN
 70
     1
  9
$DIMALTZ
 70
     0
  9
$DIMALTTZ
 70
     0
  9
$DIMFIT
 70
     3
  9
$DIMUPT
 70
     0
  9
$DIMUNIT
 70
     2
  9
$DIMDEC
 70
     2
  9
$DIMTDEC
 70
     2
  9
$DIMALTU
 70
     2
  9
$DIMALTTD
 70
     3
  9
$DIMTXSTY
  7
STANDARD
  9
$DIMAUNIT
 70
     0
  9
$LUNITS
 70
     2
  9
$LUPREC
 70
     2
  9
$SKETCHINC
 40
1.0
  9
$FILLETRAD
 40
0.0
  9
$AUNITS
 70
     0
  9
$AUPREC
 70
     2
  9
$MENU
  1
.
  9
$ELEVATION
 40
0.0
  9
$PELEVATION
 40
0.0
  9
$THICKNESS
 40
0.0
  9
$LIMCHECK
 70
     0
  9
$CHAMFERA
 40
0.0
  9
$CHAMFERB
 40
0.0
  9
$CHAMFERC
 40
0.0
  9
$CHAMFERD
 40
0.0
  9
$SKPOLY
 70
     0
  9
$TDCREATE
 40
2460095.589565857
  9
$TDUPDATE
 40
2460095.589566644
  9
$TDINDWG
 40
0.0000000116
  9
$TDUSRTIMER
 40
0.0000000116
  9
$USRTIMER
 70
     1
  9
$ANGBASE
 50
0.0
  9
$ANGDIR
 70
     0
  9
$PDMODE
 70
     0
  9
$PDSIZE
 40
-1.0
  9
$PLINEWID
 40
0.0
  9
$COORDS
 70
     1
  9
$SPLFRAME
 70
     0
  9
$SPLINETYPE
 70
     6
  9
$SPLINESEGS
 70
     8
  9
$ATTDIA
 70
     0
  9
$ATTREQ
 70
     1
  9
$HANDLING
 70
     1
  9
$HANDSEED
  5
19B
  9
$SURFTAB1
 70
     6
  9
$SURFTAB2
 70
     6
  9
$SURFTYPE
 70
     6
  9
$SURFU
 70
     6
  9
$SURFV
 70
     6
  9
$UCSNAME
  2

  9
$UCSORG
 10
0.0
 20
0.0
 30
0.0
  9
$UCSXDIR
 10
1.0
 20
0.0
 30
0.0
  9
$UCSYDIR
 10
0.0
 20
1.0
 30
0.0
  9
$PUCSNAME
  2

  9
$PUCSORG
 10
0.0
 20
0.0
 30
0.0
  9
$PUCSXDIR
 10
1.0
 20
0.0
 30
0.0
  9
$PUCSYDIR
 10
0.0
 20
1.0
 30
0.0
  9
$USERI1
 70
     0
  9
$USERI2
 70
     0
  9
$USERI3
 70
     0
  9
$USERI4
 70
     0
  9
$USERI5
 70
     0
  9
$USERR1
 40
0.0
  9
$USERR2
 40
0.0
  9
$USERR3
 40
0.0
  9
$USERR4
 40
0.0
  9
$USERR5
 40
0.0
  9
$WORLDVIEW
 70
     1
  9
$SHADEDGE
 70
     3
  9
$SHADEDIF
 70
    70
  9
$TILEMODE
 70
     1
  9
$MAXACTVP
 70
    64
  9
$PINSBASE
 10
0.0
 20
0.0
 30
0.0
  9
$PLIMCHECK
 70
     0
  9
$PEXTMIN
 10
1.0000000000E+20
 20
1.0000000000E+20
 30
1.0000000000E+20
  9
$PEXTMAX
 10
-1.0000000000E+20
 20
-1.0000000000E+20
 30
-1.0000000000E+20
  9
$PLIMMIN
 10
0.0
 20
0.0
  9
$PLIMMAX
 10
420.0
 20
297.0
  9
$UNITMODE
 70
     0
  9
$VISRETAIN
 70
     1
  9
$PLINEGEN
 70
     0
  9
$PSLTSCALE
 70
     1
  9
$TREEDEPTH
 70
  3020
  9
$PICKSTYLE
 70
     1
  9
$CMLSTYLE
  2
STANDARD
  9
$CMLJUST
 70
     0
  9
$CMLSCALE
 40
20.0
  9
$PROXYGRAPHICS
 70
     1
  9
$MEASUREMENT
 70
     1
  0
ENDSEC
  0
SECTION
  2
CLASSES
  0
CLASS
  1
ACDBDICTIONARYWDFLT
  2
AcDbDictionaryWithDefault
  3
ObjectDBX Classes
 90
        0
280
     0
281
     0
  0
CLASS
  1
VISUALSTYLE
  2
AcDbVisualStyle
  3
ObjectDBX Classes
 90
     4095
280
     0
281
     0
  0
CLASS
  1
MATERIAL
  2
AcDbMaterial
  3
ObjectDBX Classes
 90
     1153
280
     0
281
     0
  0
CLASS
  1
SCALE
  2
AcDbScale
  3
ObjectDBX Classes
 90
     1153
280
     0
281
     0
  0
CLASS
  1
TABLESTYLE
  2
AcDbTableStyle
  3
ObjectDBX Classes
 90
     4095
280
     0
281
     0
  0
CLASS
  1
MLEADERSTYLE
  2
AcDbMLeaderStyle
  3
ACDB_MLEADERSTYLE_CLASS
 90
     4095
280
     0
281
     0
  0
CLASS
  1
SUN
  2
AcDbSun
  3
SCENEOE
 90
     1153
280
     0
281
     0
  0
CLASS
  1
XRECORD
  2
AcDbXrecord
  3
ObjectDBX Classes
 90
        0
280
     0
281
     0
  0
CLASS
  1
LWPOLYLINE
  2
AcDbPolyline
  3
ObjectDBX Classes
 90
        0
280
     0
281
     1
  0
CLASS
  1
HATCH
  2
AcDbHatch
  3
ObjectDBX Classes
 90
        0
280
     0
281
     1
  0
ENDSEC
  0
SECTION
  2
TABLES
  0
TABLE
  2
VPORT
  5
8
330
0
100
AcDbSymbolTable
 70
     1
  0
VPORT
  5
29
330
8
100
AcDbSymbolTableRecord
100
AcDbViewportTableRecord
  2
*ACTIVE
 70
     0
 10
0.0
 20
0.0
 11
1.0
 21
1.0
 12
148.5
 22
105.0
 13
0.0
 23
0.0
 14
10.0
 24
10.0
 15
10.0
 25
10.0
 16
0.0
 26
0.0
 36
1.0
 17
0.0
 27
0.0
 37
0.0
 40
210.0
 41
1.4142857143
 42
50.0
 43
0.0
 44
0.0
 50
0.0
 51
0.0
 71
     0
 72
  2000
 73
     1
 74
     3
 75
     0
 76
     0
 77
     0
 78
     0
  0
ENDTAB
  0
TABLE
  2
LTYPE
  5
5
330
0
100
AcDbSymbolTable
 70
     6
  0
LTYPE
  5
14
330
5
100
AcDbSymbolTableRecord
100
AcDbLinetypeTableRecord
  2
BYBLOCK
 70
     0
  3

 72
    65
 73
     0
 40
0.0
  0
LTYPE
  5
15
330
5
100
AcDbSymbolTableRecord
100
AcDbLinetypeTableRecord
  2
BYLAYER
 70
     0
  3

 72
    65
 73
     0
 40
0.0
  0
LTYPE
  5
16
330
5
100
AcDbSymbolTableRecord
100
AcDbLinetypeTableRecord
  2
CONTINUOUS
 70
     0
  3
Solid line
 72
    65
 73
     0
 40
0.0
  0
LTYPE
  5
5E
330
5
100
AcDbSymbolTableRecord
100
AcDbLinetypeTableRecord
  2
HIDDEN
 70
     0
  3
Hidden __ __ __ __ __ __ __ __ __ __ __ __ __ __
 72
    65
 73
     2
 40
1.905
 49
1.27
 74
     0
 49
-0.635
 74
     0
  0
LTYPE
  5
5F
330
5
100
AcDbSymbolTableRecord
100
AcDbLinetypeTableRecord
  2
PHANTOM
 70
     0
  3
Phantom ______  __  __  ______  __  __  ______
 72
    65
 73
     6
 40
12.7
 49
6.35
 74
     0
 49
-1.27
 74
     0
 49
1.27
 74
     0
 49
-1.27
 74
     0
 49
1.27
 74
     0
 49
-1.27
 74
     0
  0
LTYPE
  5
60
330
5
100
AcDbSymbolTableRecord
100
AcDbLinetypeTableRecord
  2
CENTER
 70
     0
  3
Center ____ _ ____ _ ____ _ ____ _ ____ _ ____
 72
    65
 73
     4
 40
10.16
 49
6.35
 74
     0
 49
-1.27
 74
     0
 49
1.27
 74
     0
 49
-1.27
 74
     0
  0
LTYPE
  5
61
330
5
100
AcDbSymbolTableRecord
100
AcDbLinetypeTableRecord
  2
CENTERX2
 70
     0
  3
Center (2x) ________  __  ________  __  _____
 72
    65
 73
     4
 40
20.32
 49
12.7
 74
     0
 49
-2.54
 74
     0
 49
2.54
 74
     0
 49
-2.54
 74
     0
  0
LTYPE
  5
62
330
5
100
AcDbSymbolTableRecord
100
AcDbLinetypeTableRecord
  2
DOT2
 70
     0
  3
Dot (.5x) ........................................
 72
    65
 73
     2
 40
0.635
 49
0.0
 74
     0
 49
-0.635
 74
     0
  0
ENDTAB
  0
TABLE
  2
LAYER
  5
2
330
0
100
AcDbSymbolTable
 70
     3
  0
LAYER
  5
10
330
2
100
AcDbSymbolTableRecord
100
AcDbLayerTableRecord
  2
0
 70
     0
 62
     7
  6
CONTINUOUS
  0
LAYER
  5
63
330
2
100
AcDbSymbolTableRecord
100
AcDbLayerTableRecord
  2
SLD-0
 70
     0
 62
   179
  6
CONTINUOUS
  0
LAYER
  5
64
330
2
100
AcDbSymbolTableRecord
100
AcDbLayerTableRecord
  2
LAYER_1
 70
     0
 62
   179
  6
CONTINUOUS
  0
ENDTAB
  0
TABLE
  2
STYLE
  5
3
330
0
100
AcDbSymbolTable
 70
     3
  0
STYLE
  5
11
330
3
100
AcDbSymbolTableRecord
100
AcDbTextStyleTableRecord
  2
STANDARD
 70
     0
 40
0.0
 41
1.0
 50
0.0
 71
     0
 42
2.5
  3
txt
  4

  0
STYLE
  5
6C
330
3
100
AcDbSymbolTableRecord
100
AcDbTextStyleTableRecord
  2
SLDTEXTSTYLE0
 70
     0
 40
0.0
 41
0.605
 50
0.0
 71
     0
 42
2.5
  3
TXT
  4

  0
STYLE
  5
72
330
3
100
AcDbSymbolTableRecord
100
AcDbTextStyleTableRecord
  2
SLDTEXTSTYLE1
 70
     0
 40
0.0
 41
0.7
 50
0.0
 71
     0
 42
2.5
  3
TXT
  4

  0
ENDTAB
  0
TABLE
  2
VIEW
  5
6
330
0
100
AcDbSymbolTable
 70
     0
  0
ENDTAB
  0
TABLE
  2
UCS
  5
7
330
0
100
AcDbSymbolTable
 70
     0
  0
ENDTAB
  0
TABLE
  2
APPID
  5
9
330
0
100
AcDbSymbolTable
 70
     1
  0
APPID
  5
12
330
9
100
AcDbSymbolTableRecord
100
AcDbRegAppTableRecord
  2
ACAD
 70
     0
  0
ENDTAB
  0
TABLE
  2
DIMSTYLE
  5
A
330
0
100
AcDbSymbolTable
 70
     1
  0
DIMSTYLE
105
27
330
A
100
AcDbSymbolTableRecord
100
AcDbDimStyleTableRecord
  2
ISO-25
 70
     0
  3

  4

  5

  6

  7

 40
1.0
 41
2.5
 42
0.625
 43
3.75
 44
1.25
 45
0.0
 46
0.0
 47
0.0
 48
0.0
140
2.5
141
2.5
142
0.0
143
0.0393700787
144
1.0
145
0.0
146
1.0
147
0.625
 71
     0
 72
     0
 73
     0
 74
     0
 75
     0
 76
     0
 77
     1
 78
     8
170
     0
171
     3
172
     1
173
     0
174
     0
175
     0
176
     0
177
     0
178
     0
270
     2
271
     2
272
     2
273
     2
274
     3
340
11
275
     0
280
     0
281
     0
282
     0
283
     0
284
     8
285
     0
286
     0
287
     3
288
     0
  0
ENDTAB
  0
TABLE
  2
BLOCK_RECORD
  5
1
330
0
100
AcDbSymbolTable
 70
    11
  0
BLOCK_RECORD
  5
1F
330
1
100
AcDbSymbolTableRecord
100
AcDbBlockTableRecord
  2
*MODEL_SPACE
  0
BLOCK_RECORD
  5
1B
330
1
100
AcDbSymbolTableRecord
100
AcDbBlockTableRecord
  2
*PAPER_SPACE
  0
BLOCK_RECORD
  5
23
330
1
100
AcDbSymbolTableRecord
100
AcDbBlockTableRecord
  2
*PAPER_SPACE0
  0
BLOCK_RECORD
  5
65
330
1
100
AcDbSymbolTableRecord
100
AcDbBlockTableRecord
  2
DRAWING_COPYRIGHT
  0
BLOCK_RECORD
  5
69
330
1
100
AcDbSymbolTableRecord
100
AcDbBlockTableRecord
  2
SW_NOTE_0
  0
BLOCK_RECORD
  5
6F
330
1
100
AcDbSymbolTableRecord
100
AcDbBlockTableRecord
  2
SW_NOTE_0_1
  0
BLOCK_RECORD
  5
76
330
1
100
AcDbSymbolTableRecord
100
AcDbBlockTableRecord
  2
DRAWING_TITLE_BLOCK_LOGO
  0
BLOCK_RECORD
  5
152
330
1
100
AcDbSymbolTableRecord
100
AcDbBlockTableRecord
  2
SW_NOTE_0_2
  0
BLOCK_RECORD
  5
15A
330
1
100
AcDbSymbolTableRecord
100
AcDbBlockTableRecord
  2
SW_NOTE_0_3
  0
BLOCK_RECORD
  5
16A
330
1
100
AcDbSymbolTableRecord
100
AcDbBlockTableRecord
  2
SW_CENTERMARKSYMBOL_0
  0
BLOCK_RECORD
  5
176
330
1
100
AcDbSymbolTableRecord
100
AcDbBlockTableRecord
  2
SW_CENTERMARKSYMBOL_1
  0
BLOCK_RECORD
  5
182
330
1
100
AcDbSymbolTableRecord
100
AcDbBlockTableRecord
  2
SW_CENTERMARKSYMBOL_2
  0
BLOCK_RECORD
  5
18E
330
1
100
AcDbSymbolTableRecord
100
AcDbBlockTableRecord
  2
SW_CENTERMARKSYMBOL_3
  0
ENDTAB
  0
ENDSEC
  0
SECTION
  2
BLOCKS
  0
BLOCK
  5
20
330
1F
100
AcDbEntity
  8
0
100
AcDbBlockBegin
  2
*MODEL_SPACE
 70
     0
 10
0.0
 20
0.0
 30
0.0
  3
*MODEL_SPACE
  1

  0
ENDBLK
  5
21
330
1F
100
AcDbEntity
  8
0
100
AcDbBlockEnd
  0
BLOCK
  5
1C
330
1B
100
AcDbEntity
 67
     1
  8
0
100
AcDbBlockBegin
  2
*PAPER_SPACE
 70
     0
 10
0.0
 20
0.0
 30
0.0
  3
*PAPER_SPACE
  1

  0
ENDBLK
  5
1D
330
1B
100
AcDbEntity
 67
     1
  8
0
100
AcDbBlockEnd
  0
BLOCK
  5
24
330
23
100
AcDbEntity
  8
0
100
AcDbBlockBegin
  2
*PAPER_SPACE0
 70
     0
 10
0.0
 20
0.0
 30
0.0
  3
*PAPER_SPACE0
  1

  0
ENDBLK
  5
25
330
23
100
AcDbEntity
  8
0
100
AcDbBlockEnd
  0
BLOCK
  5
66
330
65
100
AcDbEntity
  8
0
100
AcDbBlockBegin
  2
DRAWING_COPYRIGHT
 70
     0
 10
0.0
 20
0.0
 30
0.0
  3
DRAWING_COPYRIGHT
  1

  0
CIRCLE
  5
68
330
65
100
AcDbEntity
  8
0
  6
CONTINUOUS
 62
     7
100
AcDbCircle
 10
3.1203933526
 20
9.1036835792
 30
0.0
 40
1.689731648566563
  0
INSERT
  5
6E
330
65
100
AcDbEntity
  8
0
  6
CONTINUOUS
 62
     7
100
AcDbBlockReference
  2
SW_NOTE_0
 10
2.0532630419
 20
7.5599929488
 30
0.0
  0
INSERT
  5
75
330
65
100
AcDbEntity
  8
0
  6
CONTINUOUS
 62
     7
100
AcDbBlockReference
  2
SW_NOTE_0_1
 10
1.4325010543
 20
4.9790440918
 30
0.0
  0
ENDBLK
  5
67
330
65
100
AcDbEntity
  8
0
100
AcDbBlockEnd
  0
BLOCK
  5
6A
330
69
100
AcDbEntity
  8
0
100
AcDbBlockBegin
  2
SW_NOTE_0
 70
     0
 10
0.0
 20
0.0
 30
0.0
  3
SW_NOTE_0
  1

  0
MTEXT
  5
6D
330
69
100
AcDbEntity
  8
0
  6
CONTINUOUS
 62
     0
100
AcDbMText
 10
0.0
 20
2.5781354795
 30
0.0
 40
2.0
 41
0.0
 71
     1
 72
     1
  1
C  COPYRIGHT 2022
  7
SLDTEXTSTYLE0
  0
ENDBLK
  5
6B
330
69
100
AcDbEntity
  8
0
100
AcDbBlockEnd
  0
BLOCK
  5
70
330
6F
100
AcDbEntity
  8
0
100
AcDbBlockBegin
  2
SW_NOTE_0_1
 70
     0
 10
0.0
 20
0.0
 30
0.0
  3
SW_NOTE_0_1
  1

  0
MTEXT
  5
73
330
6F
100
AcDbEntity
  8
0
  6
CONTINUOUS
 62
     0
100
AcDbMText
 10
0.0
 20
1.8046948357
 30
0.0
 40
1.4
 41
0.0
 71
     1
 72
     1
  1
THIS DRAWING AND SUPPORTING DATA IS ISSUED BY SCAD DESIGN ON THE UNDERSTANDING THAT IT IS STRICTLY CONFIDENTIAL AND MAY NOT BE REPRODUCED
  7
SLDTEXTSTYLE1
  0
MTEXT
  5
74
330
6F
100
AcDbEntity
  8
0
  6
CONTINUOUS
 62
     0
100
AcDbMText
 10
0.0
 20
-0.5953052783
 30
0.0
 40
1.4
 41
0.0
 71
     1
 72
     1
  1
OR UTILIZED IN ANY WAY OTHER THAN BY THE CLIENT (NOTED IN TITLE BLOCK) FOR THE PURPOSE OF MANUFACTURING THIS PART WITHOUT PRIOR PERMISSION.
  7
SLDTEXTSTYLE1
  0
ENDBLK
  5
71
330
6F
100
AcDbEntity
  8
0
100
AcDbBlockEnd
  0
BLOCK
  5
77
330
76
100
AcDbEntity
  8
0
100
AcDbBlockBegin
  2
DRAWING_TITLE_BLOCK_LOGO
 70
     0
 10
0.0
 20
0.0
 30
0.0
  3
DRAWING_TITLE_BLOCK_LOGO
  1

  0
LINE
  5
79
330
76
100
AcDbEntity
  8
LAYER_1
 62
     7
100
AcDbLine
 10
18.4277
 20
8.0286
 30
0.0
 11
18.8475
 21
8.2226
 31
0.0
  0
LINE
  5
7A
330
76
100
AcDbEntity
  8
LAYER_1
 62
     7
100
AcDbLine
 10
20.4244
 20
10.1555
 30
0.0
 11
20.0127
 21
9.9434
 31
0.0
  0
LINE
  5
7B
330
76
100
AcDbEntity
  8
LAYER_1
 62
     7
100
AcDbLine
 10
27.177
 20
8.1918
 30
0.0
 11
27.177
 21
7.597
 31
0.0
  0
LINE
  5
7C
330
76
100
AcDbEntity
  8
LAYER_1
 62
     7
100
AcDbLine
 10
27.2103
 20
10.3616
 30
0.0
 11
27.1815
 21
9.8304
 31
0.0
  0
LINE
  5
7D
330
76
100
AcDbEntity
  8
LAYER_1
 62
     7
100
AcDbLine
 10
32.0005
 20
8.652
 30
0.0
 11
32.9026
 21
8.652
 31
0.0
  0
LINE
  5
7E
330
76
100
AcDbEntity
  8
LAYER_1
 62
     7
100
AcDbLine
 10
32.9026
 20
8.652
 30
0.0
 11
32.5715
 21
9.3905
 31
0.0
  0
LINE
  5
7F
330
76
100
AcDbEntity
  8
LAYER_1
 62
     7
100
AcDbLine
 10
32.3327
 20
9.3905
 30
0.0
 11
32.0005
 21
8.652
 31
0.0
  0
LINE
  5
80
330
76
100
AcDbEntity
  8
LAYER_1
 62
     7
100
AcDbLine
 10
33.4559
 20
7.3803
 30
0.0
 11
33.0884
 21
8.214
 31
0.0
  0
LINE
  5
81
330
76
100
AcDbEntity
  8
LAYER_1
 62
     7
100
AcDbLine
 10
33.0884
 20
8.214
 30
0.0
 11
31.8067
 21
8.214
 31
0.0
  0
LINE
  5
82
330
76
100
AcDbEntity
  8
LAYER_1
 62
     7
100
AcDbLine
 10
31.8067
 20
8.214
 30
0.0
 11
31.4309
 21
7.3803
 31
0.0
  0
LINE
  5
83
330
76
100
AcDbEntity
  8
LAYER_1
 62
     7
100
AcDbLine
 10
31.4309
 20
7.3803
 30
0.0
 11
30.8771
 21
7.3803
 31
0.0
  0
LINE
  5
84
330
76
100
AcDbEntity
  8
LAYER_1
 62
     7
100
AcDbLine
 10
30.8771
 20
7.3803
 30
0.0
 11
32.4451
 21
10.7456
 31
0.0
  0
LINE
  5
85
330
76
100
AcDbEntity
  8
LAYER_1
 62
     7
100
AcDbLine
 10
32.4451
 20
10.7456
 30
0.0
 11
34.0105
 21
7.3803
 31
0.0
  0
LINE
  5
86
330
76
100
AcDbEntity
  8
LAYER_1
 62
     7
100
AcDbLine
 10
34.0105
 20
7.3803
 30
0.0
 11
33.4559
 21
7.3803
 31
0.0
  0
LINE
  5
87
330
76
100
AcDbEntity
  8
LAYER_1
 62
     7
100
AcDbLine
 10
38.3259
 20
7.8555
 30
0.0
 11
38.7685
 21
7.8555
 31
0.0
  0
LINE
  5
88
330
76
100
AcDbEntity
  8
LAYER_1
 62
     7
100
AcDbLine
 10
38.7065
 20
10.1464
 30
0.0
 11
38.5161
 21
10.1464
 31
0.0
  0
LINE
  5
89
330
76
100
AcDbEntity
  8
LAYER_1
 62
     7
100
AcDbLine
 10
38.5161
 20
10.1464
 30
0.0
 11
38.3259
 21
10.1464
 31
0.0
  0
LINE
  5
8A
330
76
100
AcDbEntity
  8
LAYER_1
 62
     7
100
AcDbLine
 10
38.3259
 20
10.1464
 30
0.0
 11
38.3259
 21
7.8555
 31
0.0
  0
LINE
  5
8B
330
76
100
AcDbEntity
  8
LAYER_1
 62
     7
100
AcDbLine
 10
37.7997
 20
7.3803
 30
0.0
 11
37.7997
 21
10.6175
 31
0.0
  0
LINE
  5
8C
330
76
100
AcDbEntity
  8
LAYER_1
 62
     7
100
AcDbLine
 10
37.7997
 20
10.6175
 30
0.0
 11
38.5095
 21
10.6175
 31
0.0
  0
LINE
  5
8D
330
76
100
AcDbEntity
  8
LAYER_1
 62
     7
100
AcDbLine
 10
38.6512
 20
7.3803
 30
0.0
 11
38.5095
 21
7.3803
 31
0.0
  0
LINE
  5
8E
330
76
100
AcDbEntity
  8
LAYER_1
 62
     7
100
AcDbLine
 10
38.5095
 20
7.3803
 30
0.0
 11
37.7997
 21
7.3803
 31
0.0
  0
LINE
  5
8F
330
76
100
AcDbEntity
  8
LAYER_1
 62
     7
100
AcDbLine
 10
18.8705
 20
3.6373
 30
0.0
 11
19.1802
 21
3.6373
 31
0.0
  0
LINE
  5
90
330
76
100
AcDbEntity
  8
LAYER_1
 62
     7
100
AcDbLine
 10
19.1368
 20
5.2404
 30
0.0
 11
19.0033
 21
5.2404
 31
0.0
  0
LINE
  5
91
330
76
100
AcDbEntity
  8
LAYER_1
 62
     7
100
AcDbLine
 10
19.0033
 20
5.2404
 30
0.0
 11
18.8705
 21
5.2404
 31
0.0
  0
LINE
  5
92
330
76
100
AcDbEntity
  8
LAYER_1
 62
     7
100
AcDbLine
 10
18.8705
 20
5.2404
 30
0.0
 11
18.8705
 21
3.6373
 31
0.0
  0
LINE
  5
93
330
76
100
AcDbEntity
  8
LAYER_1
 62
     7
100
AcDbLine
 10
18.5023
 20
3.3041
 30
0.0
 11
18.5023
 21
5.5703
 31
0.0
  0
LINE
  5
94
330
76
100
AcDbEntity
  8
LAYER_1
 62
     7
100
AcDbLine
 10
18.5023
 20
5.5703
 30
0.0
 11
18.9989
 21
5.5703
 31
0.0
  0
LINE
  5
95
330
76
100
AcDbEntity
  8
LAYER_1
 62
     7
100
AcDbLine
 10
19.0984
 20
3.3041
 30
0.0
 11
18.9989
 21
3.3041
 31
0.0
  0
LINE
  5
96
330
76
100
AcDbEntity
  8
LAYER_1
 62
     7
100
AcDbLine
 10
18.9989
 20
3.3041
 30
0.0
 11
18.5023
 21
3.3041
 31
0.0
  0
LINE
  5
97
330
76
100
AcDbEntity
  8
LAYER_1
 62
     7
100
AcDbLine
 10
23.0024
 20
3.3041
 30
0.0
 11
23.0024
 21
5.5703
 31
0.0
  0
LINE
  5
98
330
76
100
AcDbEntity
  8
LAYER_1
 62
     7
100
AcDbLine
 10
23.0024
 20
5.5703
 30
0.0
 11
24.267
 21
5.5703
 31
0.0
  0
LINE
  5
99
330
76
100
AcDbEntity
  8
LAYER_1
 62
     7
100
AcDbLine
 10
24.267
 20
5.5703
 30
0.0
 11
24.267
 21
5.2575
 31
0.0
  0
LINE
  5
9A
330
76
100
AcDbEntity
  8
LAYER_1
 62
     7
100
AcDbLine
 10
24.267
 20
5.2575
 30
0.0
 11
23.3705
 21
5.2575
 31
0.0
  0
LINE
  5
9B
330
76
100
AcDbEntity
  8
LAYER_1
 62
     7
100
AcDbLine
 10
23.3705
 20
5.2575
 30
0.0
 11
23.3705
 21
4.6894
 31
0.0
  0
LINE
  5
9C
330
76
100
AcDbEntity
  8
LAYER_1
 62
     7
100
AcDbLine
 10
23.3705
 20
4.6894
 30
0.0
 11
24.267
 21
4.6894
 31
0.0
  0
LINE
  5
9D
330
76
100
AcDbEntity
  8
LAYER_1
 62
     7
100
AcDbLine
 10
24.267
 20
4.6894
 30
0.0
 11
24.267
 21
4.3661
 31
0.0
  0
LINE
  5
9E
330
76
100
AcDbEntity
  8
LAYER_1
 62
     7
100
AcDbLine
 10
24.267
 20
4.3661
 30
0.0
 11
23.3705
 21
4.3661
 31
0.0
  0
LINE
  5
9F
330
76
100
AcDbEntity
  8
LAYER_1
 62
     7
100
AcDbLine
 10
23.3705
 20
4.3661
 30
0.0
 11
23.3705
 21
3.634
 31
0.0
  0
LINE
  5
A0
330
76
100
AcDbEntity
  8
LAYER_1
 62
     7
100
AcDbLine
 10
23.3705
 20
3.634
 30
0.0
 11
24.267
 21
3.634
 31
0.0
  0
LINE
  5
A1
330
76
100
AcDbEntity
  8
LAYER_1
 62
     7
100
AcDbLine
 10
24.267
 20
3.634
 30
0.0
 11
24.267
 21
3.3041
 31
0.0
  0
LINE
  5
A2
330
76
100
AcDbEntity
  8
LAYER_1
 62
     7
100
AcDbLine
 10
24.267
 20
3.3041
 30
0.0
 11
23.0024
 21
3.3041
 31
0.0
  0
LINE
  5
A3
330
76
100
AcDbEntity
  8
LAYER_1
 62
     7
100
AcDbLine
 10
26.713
 20
3.7582
 30
0.0
 11
27.0072
 21
3.8938
 31
0.0
  0
LINE
  5
A4
330
76
100
AcDbEntity
  8
LAYER_1
 62
     7
100
AcDbLine
 10
28.1105
 20
5.247
 30
0.0
 11
27.8224
 21
5.0981
 31
0.0
  0
LINE
  5
A5
330
76
100
AcDbEntity
  8
LAYER_1
 62
     7
100
AcDbLine
 10
30.743
 20
3.3041
 30
0.0
 11
30.743
 21
5.5703
 31
0.0
  0
LINE
  5
A6
330
76
100
AcDbEntity
  8
LAYER_1
 62
     7
100
AcDbLine
 10
30.743
 20
5.5703
 30
0.0
 11
31.1115
 21
5.5703
 31
0.0
  0
LINE
  5
A7
330
76
100
AcDbEntity
  8
LAYER_1
 62
     7
100
AcDbLine
 10
31.1115
 20
5.5703
 30
0.0
 11
31.1115
 21
3.3041
 31
0.0
  0
LINE
  5
A8
330
76
100
AcDbEntity
  8
LAYER_1
 62
     7
100
AcDbLine
 10
31.1115
 20
3.3041
 30
0.0
 11
30.743
 21
3.3041
 31
0.0
  0
LINE
  5
A9
330
76
100
AcDbEntity
  8
LAYER_1
 62
     7
100
AcDbLine
 10
35.0498
 20
4.4647
 30
0.0
 11
35.9476
 21
4.4647
 31
0.0
  0
LINE
  5
AA
330
76
100
AcDbEntity
  8
LAYER_1
 62
     7
100
AcDbLine
 10
35.764
 20
5.2253
 30
0.0
 11
35.4942
 21
5.0226
 31
0.0
  0
LINE
  5
AB
330
76
100
AcDbEntity
  8
LAYER_1
 62
     7
100
AcDbLine
 10
35.5944
 20
4.1212
 30
0.0
 11
35.5944
 21
4.1536
 31
0.0
  0
LINE
  5
AC
330
76
100
AcDbEntity
  8
LAYER_1
 62
     7
100
AcDbLine
 10
35.5944
 20
4.1536
 30
0.0
 11
35.0498
 21
4.1536
 31
0.0
  0
LINE
  5
AD
330
76
100
AcDbEntity
  8
LAYER_1
 62
     7
100
AcDbLine
 10
35.0498
 20
4.1536
 30
0.0
 11
35.0498
 21
4.4647
 31
0.0
  0
LINE
  5
AE
330
76
100
AcDbEntity
  8
LAYER_1
 62
     7
100
AcDbLine
 10
38.4944
 20
3.3041
 30
0.0
 11
38.4944
 21
5.66
 31
0.0
  0
LINE
  5
AF
330
76
100
AcDbEntity
  8
LAYER_1
 62
     7
100
AcDbLine
 10
38.4944
 20
5.66
 30
0.0
 11
39.9338
 21
4.2745
 31
0.0
  0
LINE
  5
B0
330
76
100
AcDbEntity
  8
LAYER_1
 62
     7
100
AcDbLine
 10
40.1801
 20
3.999
 30
0.0
 11
40.1801
 21
5.5703
 31
0.0
  0
LINE
  5
B1
330
76
100
AcDbEntity
  8
LAYER_1
 62
     7
100
AcDbLine
 10
40.1801
 20
5.5703
 30
0.0
 11
40.5208
 21
5.5703
 31
0.0
  0
LINE
  5
B2
330
76
100
AcDbEntity
  8
LAYER_1
 62
     7
100
AcDbLine
 10
40.5208
 20
5.5703
 30
0.0
 11
40.5208
 21
3.216
 31
0.0
  0
LINE
  5
B3
330
76
100
AcDbEntity
  8
LAYER_1
 62
     7
100
AcDbLine
 10
40.5208
 20
3.216
 30
0.0
 11
39.0517
 21
4.6259
 31
0.0
  0
LINE
  5
B4
330
76
100
AcDbEntity
  8
LAYER_1
 62
     7
100
AcDbLine
 10
38.8337
 20
4.8796
 30
0.0
 11
38.8337
 21
3.3041
 31
0.0
  0
LINE
  5
B5
330
76
100
AcDbEntity
  8
LAYER_1
 62
     7
100
AcDbLine
 10
38.8337
 20
3.3041
 30
0.0
 11
38.4944
 21
3.3041
 31
0.0
  0
LINE
  5
B6
330
76
100
AcDbEntity
  8
LAYER_1
 62
     7
100
AcDbLine
 10
3.7795
 20
10.7364
 30
0.0
 11
7.5309
 21
12.1019
 31
0.0
  0
LINE
  5
B7
330
76
100
AcDbEntity
  8
LAYER_1
 62
     7
100
AcDbLine
 10
6.8916
 20
13.8579
 30
0.0
 11
3.1403
 21
12.4925
 31
0.0
  0
LINE
  5
B8
330
76
100
AcDbEntity
  8
LAYER_1
 62
     7
100
AcDbLine
 10
6.3764
 20
3.6014
 30
0.0
 11
10.1278
 21
4.9667
 31
0.0
  0
LINE
  5
B9
330
76
100
AcDbEntity
  8
LAYER_1
 62
     7
100
AcDbLine
 10
9.4886
 20
6.7226
 30
0.0
 11
5.7372
 21
5.3574
 31
0.0
  0
LINE
  5
BA
330
76
100
AcDbEntity
  8
LAYER_1
 62
     7
100
AcDbLine
 10
10.9132
 20
3.2102
 30
0.0
 11
7.1618
 21
1.8448
 31
0.0
  0
LINE
  5
BB
330
76
100
AcDbEntity
  8
LAYER_1
 62
     7
100
AcDbLine
 10
7.8011
 20
0.0888
 30
0.0
 11
11.5524
 21
1.4542
 31
0.0
  0
LINE
  5
BC
330
76
100
AcDbEntity
  8
LAYER_1
 62
     7
100
AcDbLine
 10
8.3163
 20
10.3452
 30
0.0
 11
4.5649
 21
8.9799
 31
0.0
  0
LINE
  5
BD
330
76
100
AcDbEntity
  8
LAYER_1
 62
     7
100
AcDbLine
 10
5.2041
 20
7.2241
 30
0.0
 11
8.9555
 21
8.5893
 31
0.0
  0
SPLINE
  5
BE
330
76
100
AcDbEntity
  8
LAYER_1
 62
     7
100
AcDbSpline
210
0.0
220
0.0
230
1.0
 70
     8
 71
     3
 72
     8
 73
     4
 74
     0
 42
0.00000001
 43
0.00000001
 40
0.0384615384615385
 40
0.0384615384615385
 40
0.0384615384615385
 40
0.0384615384615385
 40
0.0769230769230769
 40
0.0769230769230769
 40
0.0769230769230769
 40
0.0769230769230769
 10
18.84750000000013
 20
8.222599999999968
 30
0.0
 10
18.88730000000016
 20
8.078299999999983
 30
0.0
 10
18.96070000000016
 20
7.967899999999972
 30
0.0
 10
19.06620000000014
 20
7.892699999999975
 30
0.0
  0
SPLINE
  5
BF
330
76
100
AcDbEntity
  8
LAYER_1
 62
     7
100
AcDbSpline
210
0.0
220
0.0
230
1.0
 70
     8
 71
     3
 72
     8
 73
     4
 74
     0
 42
0.00000001
 43
0.00000001
 40
0.0769230769230769
 40
0.0769230769230769
 40
0.0769230769230769
 40
0.0769230769230769
 40
0.1153846153846154
 40
0.1153846153846154
 40
0.1153846153846154
 40
0.1153846153846154
 10
19.06620000000014
 20
7.892699999999975
 30
0.0
 10
19.1728000000001
 20
7.816500000000004
 30
0.0
 10
19.30880000000013
 20
7.778400000000019
 30
0.0
 10
19.47300000000007
 20
7.778400000000019
 30
0.0
  0
SPLINE
  5
C0
330
76
100
AcDbEntity
  8
LAYER_1
 62
     7
100
AcDbSpline
210
0.0
220
0.0
230
1.0
 70
     8
 71
     3
 72
     8
 73
     4
 74
     0
 42
0.00000001
 43
0.00000001
 40
0.1153846153846154
 40
0.1153846153846154
 40
0.1153846153846154
 40
0.1153846153846154
 40
0.1538461538461539
 40
0.1538461538461539
 40
0.1538461538461539
 40
0.1538461538461539
 10
19.47300000000007
 20
7.778400000000019
 30
0.0
 10
19.63010000000009
 20
7.778400000000019
 30
0.0
 10
19.75370000000009
 20
7.822300000000004
 30
0.0
 10
19.84570000000008
 20
7.908999999999999
 30
0.0
  0
SPLINE
  5
C1
330
76
100
AcDbEntity
  8
LAYER_1
 62
     7
100
AcDbSpline
210
0.0
220
0.0
230
1.0
 70
     8
 71
     3
 72
     8
 73
     4
 74
     0
 42
0.00000001
 43
0.00000001
 40
0.1538461538461539
 40
0.1538461538461539
 40
0.1538461538461539
 40
0.1538461538461539
 40
0.1923076923076923
 40
0.1923076923076923
 40
0.1923076923076923
 40
0.1923076923076923
 10
19.84570000000008
 20
7.908999999999999
 30
0.0
 10
19.93810000000007
 20
7.996000000000059
 30
0.0
 10
19.98410000000017
 20
8.112200000000014
 30
0.0
 10
19.98410000000017
 20
8.257899999999985
 30
0.0
  0
SPLINE
  5
C2
330
76
100
AcDbEntity
  8
LAYER_1
 62
     7
100
AcDbSpline
210
0.0
220
0.0
230
1.0
 70
     8
 71
     3
 72
     8
 73
     4
 74
     0
 42
0.00000001
 43
0.00000001
 40
0.1923076923076923
 40
0.1923076923076923
 40
0.1923076923076923
 40
0.1923076923076923
 40
0.2307692307692308
 40
0.2307692307692308
 40
0.2307692307692308
 40
0.2307692307692308
 10
19.98410000000017
 20
8.257899999999985
 30
0.0
 10
19.98410000000017
 20
8.448100000000014
 30
0.0
 10
19.82630000000007
 20
8.617900000000011
 30
0.0
 10
19.51110000000011
 20
8.766700000000016
 30
0.0
  0
SPLINE
  5
C3
330
76
100
AcDbEntity
  8
LAYER_1
 62
     7
100
AcDbSpline
210
0.0
220
0.0
230
1.0
 70
     8
 71
     3
 72
     8
 73
     4
 74
     0
 42
0.00000001
 43
0.00000001
 40
0.2307692307692308
 40
0.2307692307692308
 40
0.2307692307692308
 40
0.2307692307692308
 40
0.2692307692307693
 40
0.2692307692307693
 40
0.2692307692307693
 40
0.2692307692307693
 10
19.51110000000011
 20
8.766700000000016
 30
0.0
 10
19.46640000000022
 20
8.78899999999999
 30
0.0
 10
19.4333000000001
 20
8.805099999999955
 30
0.0
 10
19.40900000000012
 20
8.815300000000025
 30
0.0
  0
SPLINE
  5
C4
330
76
100
AcDbEntity
  8
LAYER_1
 62
     7
100
AcDbSpline
210
0.0
220
0.0
230
1.0
 70
     8
 71
     3
 72
     8
 73
     4
 74
     0
 42
0.00000001
 43
0.00000001
 40
0.2692307692307693
 40
0.2692307692307693
 40
0.2692307692307693
 40
0.2692307692307693
 40
0.3076923076923077
 40
0.3076923076923077
 40
0.3076923076923077
 40
0.3076923076923077
 10
19.40900000000012
 20
8.815300000000025
 30
0.0
 10
19.0526000000002
 20
8.989500000000039
 30
0.0
 10
18.81490000000008
 20
9.146199999999993
 30
0.0
 10
18.69640000000006
 20
9.28770000000001
 30
0.0
  0
SPLINE
  5
C5
330
76
100
AcDbEntity
  8
LAYER_1
 62
     7
100
AcDbSpline
210
0.0
220
0.0
230
1.0
 70
     8
 71
     3
 72
     8
 73
     4
 74
     0
 42
0.00000001
 43
0.00000001
 40
0.3076923076923077
 40
0.3076923076923077
 40
0.3076923076923077
 40
0.3076923076923077
 40
0.3461538461538462
 40
0.3461538461538462
 40
0.3461538461538462
 40
0.3461538461538462
 10
18.69640000000006
 20
9.28770000000001
 30
0.0
 10
18.57790000000015
 20
9.42810000000005
 30
0.0
 10
18.51800000000015
 20
9.600500000000011
 30
0.0
 10
18.51800000000015
 20
9.80369999999997
 30
0.0
  0
SPLINE
  5
C6
330
76
100
AcDbEntity
  8
LAYER_1
 62
     7
100
AcDbSpline
210
0.0
220
0.0
230
1.0
 70
     8
 71
     3
 72
     8
 73
     4
 74
     0
 42
0.00000001
 43
0.00000001
 40
0.3461538461538462
 40
0.3461538461538462
 40
0.3461538461538462
 40
0.3461538461538462
 40
0.3846153846153846
 40
0.3846153846153846
 40
0.3846153846153846
 40
0.3846153846153846
 10
18.51800000000015
 20
9.80369999999997
 30
0.0
 10
18.51800000000015
 20
10.06799999999997
 30
0.0
 10
18.60830000000013
 20
10.28190000000001
 30
0.0
 10
18.78750000000018
 20
10.44539999999999
 30
0.0
  0
SPLINE
  5
C7
330
76
100
AcDbEntity
  8
LAYER_1
 62
     7
100
AcDbSpline
210
0.0
220
0.0
230
1.0
 70
     8
 71
     3
 72
     8
 73
     4
 74
     0
 42
0.00000001
 43
0.00000001
 40
0.3846153846153846
 40
0.3846153846153846
 40
0.3846153846153846
 40
0.3846153846153846
 40
0.423076923076923
 40
0.423076923076923
 40
0.423076923076923
 40
0.423076923076923
 10
18.78750000000018
 20
10.44539999999999
 30
0.0
 10
18.96580000000014
 20
10.60929999999999
 30
0.0
 10
19.20090000000008
 20
10.6907
 30
0.0
 10
19.49140000000016
 20
10.6907
 30
0.0
  0
SPLINE
  5
C8
330
76
100
AcDbEntity
  8
LAYER_1
 62
     7
100
AcDbSpline
210
0.0
220
0.0
230
1.0
 70
     8
 71
     3
 72
     8
 73
     4
 74
     0
 42
0.00000001
 43
0.00000001
 40
0.423076923076923
 40
0.423076923076923
 40
0.423076923076923
 40
0.423076923076923
 40
0.4615384615384615
 40
0.4615384615384615
 40
0.4615384615384615
 40
0.4615384615384615
 10
19.49140000000016
 20
10.6907
 30
0.0
 10
19.73000000000014
 20
10.6907
 30
0.0
 10
19.93030000000018
 20
10.64510000000002
 30
0.0
 10
20.09080000000008
 20
10.55270000000003
 30
0.0
  0
SPLINE
  5
C9
330
76
100
AcDbEntity
  8
LAYER_1
 62
     7
100
AcDbSpline
210
0.0
220
0.0
230
1.0
 70
     8
 71
     3
 72
     8
 73
     4
 74
     0
 42
0.00000001
 43
0.00000001
 40
0.4615384615384615
 40
0.4615384615384615
 40
0.4615384615384615
 40
0.4615384615384615
 40
0.4999999999999999
 40
0.4999999999999999
 40
0.4999999999999999
 40
0.4999999999999999
 10
20.09080000000008
 20
10.55270000000003
 30
0.0
 10
20.25120000000014
 20
10.46050000000004
 30
0.0
 10
20.36280000000012
 20
10.32759999999999
 30
0.0
 10
20.42440000000012
 20
10.15550000000004
 30
0.0
  0
SPLINE
  5
CA
330
76
100
AcDbEntity
  8
LAYER_1
 62
     7
100
AcDbSpline
210
0.0
220
0.0
230
1.0
 70
     8
 71
     3
 72
     8
 73
     4
 74
     0
 42
0.00000001
 43
0.00000001
 40
0.5384615384615383
 40
0.5384615384615383
 40
0.5384615384615383
 40
0.5384615384615383
 40
0.5769230769230768
 40
0.5769230769230768
 40
0.5769230769230768
 40
0.5769230769230768
 10
20.01270000000011
 20
9.943399999999992
 30
0.0
 10
19.94820000000008
 20
10.04540000000004
 30
0.0
 10
19.87700000000014
 20
10.1194
 30
0.0
 10
19.79930000000019
 20
10.16600000000001
 30
0.0
  0
SPLINE
  5
CB
330
76
100
AcDbEntity
  8
LAYER_1
 62
     7
100
AcDbSpline
210
0.0
220
0.0
230
1.0
 70
     8
 71
     3
 72
     8
 73
     4
 74
     0
 42
0.00000001
 43
0.00000001
 40
0.5769230769230768
 40
0.5769230769230768
 40
0.5769230769230768
 40
0.5769230769230768
 40
0.6153846153846152
 40
0.6153846153846152
 40
0.6153846153846152
 40
0.6153846153846152
 10
19.79930000000019
 20
10.16600000000001
 30
0.0
 10
19.72260000000015
 20
10.21369999999999
 30
0.0
 10
19.63330000000008
 20
10.2373
 30
0.0
 10
19.53310000000019
 20
10.2373
 30
0.0
  0
SPLINE
  5
CC
330
76
100
AcDbEntity
  8
LAYER_1
 62
     7
100
AcDbSpline
210
0.0
220
0.0
230
1.0
 70
     8
 71
     3
 72
     8
 73
     4
 74
     0
 42
0.00000001
 43
0.00000001
 40
0.6153846153846152
 40
0.6153846153846152
 40
0.6153846153846152
 40
0.6153846153846152
 40
0.6538461538461536
 40
0.6538461538461536
 40
0.6538461538461536
 40
0.6538461538461536
 10
19.53310000000019
 20
10.2373
 30
0.0
 10
19.39160000000006
 20
10.2373
 30
0.0
 10
19.27960000000006
 20
10.19999999999999
 30
0.0
 10
19.19610000000016
 20
10.127
 30
0.0
  0
SPLINE
  5
CD
330
76
100
AcDbEntity
  8
LAYER_1
 62
     7
100
AcDbSpline
210
0.0
220
0.0
230
1.0
 70
     8
 71
     3
 72
     8
 73
     4
 74
     0
 42
0.00000001
 43
0.00000001
 40
0.6538461538461536
 40
0.6538461538461536
 40
0.6538461538461536
 40
0.6538461538461536
 40
0.6923076923076921
 40
0.6923076923076921
 40
0.6923076923076921
 40
0.6923076923076921
 10
19.19610000000016
 20
10.127
 30
0.0
 10
19.11230000000019
 20
10.05279999999997
 30
0.0
 10
19.07110000000012
 20
9.954099999999965
 30
0.0
 10
19.07110000000012
 20
9.830400000000017
 30
0.0
  0
SPLINE
  5
CE
330
76
100
AcDbEntity
  8
LAYER_1
 62
     7
100
AcDbSpline
210
0.0
220
0.0
230
1.0
 70
     8
 71
     3
 72
     8
 73
     4
 74
     0
 42
0.00000001
 43
0.00000001
 40
0.6923076923076921
 40
0.6923076923076921
 40
0.6923076923076921
 40
0.6923076923076921
 40
0.7307692307692305
 40
0.7307692307692305
 40
0.7307692307692305
 40
0.7307692307692305
 10
19.07110000000012
 20
9.830400000000017
 30
0.0
 10
19.07110000000012
 20
9.635600000000021
 30
0.0
 10
19.2536000000002
 20
9.454299999999972
 30
0.0
 10
19.61950000000012
 20
9.286699999999982
 30
0.0
  0
SPLINE
  5
CF
330
76
100
AcDbEntity
  8
LAYER_1
 62
     7
100
AcDbSpline
210
0.0
220
0.0
230
1.0
 70
     8
 71
     3
 72
     8
 73
     4
 74
     0
 42
0.00000001
 43
0.00000001
 40
0.7307692307692305
 40
0.7307692307692305
 40
0.7307692307692305
 40
0.7307692307692305
 40
0.7692307692307689
 40
0.7692307692307689
 40
0.7692307692307689
 40
0.7692307692307689
 10
19.61950000000012
 20
9.286699999999982
 30
0.0
 10
19.64740000000009
 20
9.272899999999973
 30
0.0
 10
19.66960000000007
 20
9.262500000000006
 30
0.0
 10
19.68550000000013
 20
9.255699999999978
 30
0.0
  0
SPLINE
  5
D0
330
76
100
AcDbEntity
  8
LAYER_1
 62
     7
100
AcDbSpline
210
0.0
220
0.0
230
1.0
 70
     8
 71
     3
 72
     8
 73
     4
 74
     0
 42
0.00000001
 43
0.00000001
 40
0.7692307692307689
 40
0.7692307692307689
 40
0.7692307692307689
 40
0.7692307692307689
 40
0.8076923076923074
 40
0.8076923076923074
 40
0.8076923076923074
 40
0.8076923076923074
 10
19.68550000000013
 20
9.255699999999978
 30
0.0
 10
20.00550000000012
 20
9.107399999999988
 30
0.0
 10
20.22500000000016
 20
8.963500000000014
 30
0.0
 10
20.34510000000012
 20
8.82350000000004
 30
0.0
  0
SPLINE
  5
D1
330
76
100
AcDbEntity
  8
LAYER_1
 62
     7
100
AcDbSpline
210
0.0
220
0.0
230
1.0
 70
     8
 71
     3
 72
     8
 73
     4
 74
     0
 42
0.00000001
 43
0.00000001
 40
0.8076923076923074
 40
0.8076923076923074
 40
0.8076923076923074
 40
0.8076923076923074
 40
0.8461538461538458
 40
0.8461538461538458
 40
0.8461538461538458
 40
0.8461538461538458
 10
20.34510000000012
 20
8.82350000000004
 30
0.0
 10
20.46440000000016
 20
8.682299999999977
 30
0.0
 10
20.52380000000009
 20
8.506100000000016
 30
0.0
 10
20.52380000000009
 20
8.295900000000023
 30
0.0
  0
SPLINE
  5
D2
330
76
100
AcDbEntity
  8
LAYER_1
 62
     7
100
AcDbSpline
210
0.0
220
0.0
230
1.0
 70
     8
 71
     3
 72
     8
 73
     4
 74
     0
 42
0.00000001
 43
0.00000001
 40
0.8461538461538458
 40
0.8461538461538458
 40
0.8461538461538458
 40
0.8461538461538458
 40
0.8846153846153842
 40
0.8846153846153842
 40
0.8846153846153842
 40
0.8846153846153842
 10
20.52380000000009
 20
8.295900000000023
 30
0.0
 10
20.52380000000009
 20
7.989199999999974
 30
0.0
 10
20.42750000000015
 20
7.745400000000013
 30
0.0
 10
20.23400000000009
 20
7.565199999999994
 30
0.0
  0
SPLINE
  5
D3
330
76
100
AcDbEntity
  8
LAYER_1
 62
     7
100
AcDbSpline
210
0.0
220
0.0
230
1.0
 70
     8
 71
     3
 72
     8
 73
     4
 74
     0
 42
0.00000001
 43
0.00000001
 40
0.8846153846153842
 40
0.8846153846153842
 40
0.8846153846153842
 40
0.8846153846153842
 40
0.9230769230769227
 40
0.9230769230769227
 40
0.9230769230769227
 40
0.9230769230769227
 10
20.23400000000009
 20
7.565199999999994
 30
0.0
 10
20.04080000000019
 20
7.384799999999969
 30
0.0
 10
19.78080000000016
 20
7.29390000000002
 30
0.0
 10
19.45120000000011
 20
7.29390000000002
 30
0.0
  0
SPLINE
  5
D4
330
76
100
AcDbEntity
  8
LAYER_1
 62
     7
100
AcDbSpline
210
0.0
220
0.0
230
1.0
 70
     8
 71
     3
 72
     8
 73
     4
 74
     0
 42
0.00000001
 43
0.00000001
 40
0.9230769230769227
 40
0.9230769230769227
 40
0.9230769230769227
 40
0.9230769230769227
 40
0.9615384615384611
 40
0.9615384615384611
 40
0.9615384615384611
 40
0.9615384615384611
 10
19.45120000000011
 20
7.29390000000002
 30
0.0
 10
19.17560000000007
 20
7.29390000000002
 30
0.0
 10
18.94990000000007
 20
7.357599999999964
 30
0.0
 10
18.77370000000012
 20
7.484299999999999
 30
0.0
  0
SPLINE
  5
D5
330
76
100
AcDbEntity
  8
LAYER_1
 62
     7
100
AcDbSpline
210
0.0
220
0.0
230
1.0
 70
     8
 71
     3
 72
     8
 73
     4
 74
     0
 42
0.00000001
 43
0.00000001
 40
0.9615384615384611
 40
0.9615384615384611
 40
0.9615384615384611
 40
0.9615384615384611
 40
1.0
 40
1.0
 40
1.0
 40
1.0
 10
18.77370000000012
 20
7.484299999999999
 30
0.0
 10
18.59780000000022
 20
7.611100000000038
 30
0.0
 10
18.48230000000017
 20
7.792300000000029
 30
0.0
 10
18.42770000000016
 20
8.028599999999997
 30
0.0
  0
SPLINE
  5
D6
330
76
100
AcDbEntity
  8
LAYER_1
 62
     7
100
AcDbSpline
210
0.0
220
0.0
230
1.0
 70
     8
 71
     3
 72
     8
 73
     4
 74
     0
 42
0.00000001
 43
0.00000001
 40
0.0
 40
0.0
 40
0.0
 40
0.0
 40
0.0454545454545455
 40
0.0454545454545455
 40
0.0454545454545455
 40
0.0454545454545455
 10
27.18150000000008
 20
9.830400000000017
 30
0.0
 10
27.03280000000008
 20
9.95689999999999
 30
0.0
 10
26.8752000000001
 20
10.05220000000001
 30
0.0
 10
26.70980000000012
 20
10.1155
 30
0.0
  0
SPLINE
  5
D7
330
76
100
AcDbEntity
  8
LAYER_1
 62
     7
100
AcDbSpline
210
0.0
220
0.0
230
1.0
 70
     8
 71
     3
 72
     8
 73
     4
 74
     0
 42
0.00000001
 43
0.00000001
 40
0.0454545454545455
 40
0.0454545454545455
 40
0.0454545454545455
 40
0.0454545454545455
 40
0.0909090909090909
 40
0.0909090909090909
 40
0.0909090909090909
 40
0.0909090909090909
 10
26.70980000000012
 20
10.1155
 30
0.0
 10
26.54380000000012
 20
10.17920000000005
 30
0.0
 10
26.3696000000001
 20
10.21080000000002
 30
0.0
 10
26.18690000000012
 20
10.21080000000002
 30
0.0
  0
SPLINE
  5
D8
330
76
100
AcDbEntity
  8
LAYER_1
 62
     7
100
AcDbSpline
210
0.0
220
0.0
230
1.0
 70
     8
 71
     3
 72
     8
 73
     4
 74
     0
 42
0.00000001
 43
0.00000001
 40
0.0909090909090909
 40
0.0909090909090909
 40
0.0909090909090909
 40
0.0909090909090909
 40
0.1363636363636364
 40
0.1363636363636364
 40
0.1363636363636364
 40
0.1363636363636364
 10
26.18690000000012
 20
10.21080000000002
 30
0.0
 10
25.83290000000016
 20
10.21080000000002
 30
0.0
 10
25.54520000000016
 20
10.09779999999999
 30
0.0
 10
25.32310000000015
 20
9.870100000000049
 30
0.0
  0
SPLINE
  5
D9
330
76
100
AcDbEntity
  8
LAYER_1
 62
     7
100
AcDbSpline
210
0.0
220
0.0
230
1.0
 70
     8
 71
     3
 72
     8
 73
     4
 74
     0
 42
0.00000001
 43
0.00000001
 40
0.1363636363636364
 40
0.1363636363636364
 40
0.1363636363636364
 40
0.1363636363636364
 40
0.1818181818181818
 40
0.1818181818181818
 40
0.1818181818181818
 40
0.1818181818181818
 10
25.32310000000015
 20
9.870100000000049
 30
0.0
 10
25.10140000000016
 20
9.64290000000001
 30
0.0
 10
24.99060000000009
 20
9.348400000000034
 30
0.0
 10
24.99060000000009
 20
8.987699999999988
 30
0.0
  0
SPLINE
  5
DA
330
76
100
AcDbEntity
  8
LAYER_1
 62
     7
100
AcDbSpline
210
0.0
220
0.0
230
1.0
 70
     8
 71
     3
 72
     8
 73
     4
 74
     0
 42
0.00000001
 43
0.00000001
 40
0.1818181818181818
 40
0.1818181818181818
 40
0.1818181818181818
 40
0.1818181818181818
 40
0.2272727272727273
 40
0.2272727272727273
 40
0.2272727272727273
 40
0.2272727272727273
 10
24.99060000000009
 20
8.987699999999988
 30
0.0
 10
24.99060000000009
 20
8.63839999999999
 30
0.0
 10
25.09830000000013
 20
8.350299999999978
 30
0.0
 10
25.31390000000011
 20
8.122799999999986
 30
0.0
  0
SPLINE
  5
DB
330
76
100
AcDbEntity
  8
LAYER_1
 62
     7
100
AcDbSpline
210
0.0
220
0.0
230
1.0
 70
     8
 71
     3
 72
     8
 73
     4
 74
     0
 42
0.00000001
 43
0.00000001
 40
0.2272727272727273
 40
0.2272727272727273
 40
0.2272727272727273
 40
0.2272727272727273
 40
0.2727272727272728
 40
0.2727272727272728
 40
0.2727272727272728
 40
0.2727272727272728
 10
25.31390000000011
 20
8.122799999999986
 30
0.0
 10
25.53010000000011
 20
7.895600000000003
 30
0.0
 10
25.80250000000017
 20
7.782500000000026
 30
0.0
 10
26.1317000000002
 20
7.782500000000026
 30
0.0
  0
SPLINE
  5
DC
330
76
100
AcDbEntity
  8
LAYER_1
 62
     7
100
AcDbSpline
210
0.0
220
0.0
230
1.0
 70
     8
 71
     3
 72
     8
 73
     4
 74
     0
 42
0.00000001
 43
0.00000001
 40
0.2727272727272728
 40
0.2727272727272728
 40
0.2727272727272728
 40
0.2727272727272728
 40
0.3181818181818182
 40
0.3181818181818182
 40
0.3181818181818182
 40
0.3181818181818182
 10
26.1317000000002
 20
7.782500000000026
 30
0.0
 10
26.32240000000019
 20
7.782500000000026
 30
0.0
 10
26.50540000000012
 20
7.816500000000004
 30
0.0
 10
26.67860000000011
 20
7.884700000000022
 30
0.0
  0
SPLINE
  5
DD
330
76
100
AcDbEntity
  8
LAYER_1
 62
     7
100
AcDbSpline
210
0.0
220
0.0
230
1.0
 70
     8
 71
     3
 72
     8
 73
     4
 74
     0
 42
0.00000001
 43
0.00000001
 40
0.3181818181818182
 40
0.3181818181818182
 40
0.3181818181818182
 40
0.3181818181818182
 40
0.3636363636363637
 40
0.3636363636363637
 40
0.3636363636363637
 40
0.3636363636363637
 10
26.67860000000011
 20
7.884700000000022
 30
0.0
 10
26.85190000000015
 20
7.952400000000026
 30
0.0
 10
27.01770000000014
 20
8.053799999999999
 30
0.0
 10
27.17700000000023
 20
8.191799999999972
 30
0.0
  0
SPLINE
  5
DE
330
76
100
AcDbEntity
  8
LAYER_1
 62
     7
100
AcDbSpline
210
0.0
220
0.0
230
1.0
 70
     8
 71
     3
 72
     8
 73
     4
 74
     0
 42
0.00000001
 43
0.00000001
 40
0.4090909090909092
 40
0.4090909090909092
 40
0.4090909090909092
 40
0.4090909090909092
 40
0.4545454545454546
 40
0.4545454545454546
 40
0.4545454545454546
 40
0.4545454545454546
 10
27.17700000000023
 20
7.597000000000021
 30
0.0
 10
27.03590000000011
 20
7.494700000000021
 30
0.0
 10
26.88100000000016
 20
7.419300000000018
 30
0.0
 10
26.71510000000021
 20
7.369500000000029
 30
0.0
  0
SPLINE
  5
DF
330
76
100
AcDbEntity
  8
LAYER_1
 62
     7
100
AcDbSpline
210
0.0
220
0.0
230
1.0
 70
     8
 71
     3
 72
     8
 73
     4
 74
     0
 42
0.00000001
 43
0.00000001
 40
0.4545454545454546
 40
0.4545454545454546
 40
0.4545454545454546
 40
0.4545454545454546
 40
0.5000000000000001
 40
0.5000000000000001
 40
0.5000000000000001
 40
0.5000000000000001
 10
26.71510000000021
 20
7.369500000000029
 30
0.0
 10
26.54830000000008
 20
7.31900000000002
 30
0.0
 10
26.36800000000006
 20
7.29390000000002
 30
0.0
 10
26.17340000000013
 20
7.29390000000002
 30
0.0
  0
SPLINE
  5
E0
330
76
100
AcDbEntity
  8
LAYER_1
 62
     7
100
AcDbSpline
210
0.0
220
0.0
230
1.0
 70
     8
 71
     3
 72
     8
 73
     4
 74
     0
 42
0.00000001
 43
0.00000001
 40
0.5000000000000001
 40
0.5000000000000001
 40
0.5000000000000001
 40
0.5000000000000001
 40
0.5454545454545455
 40
0.5454545454545455
 40
0.5454545454545455
 40
0.5454545454545455
 10
26.17340000000013
 20
7.29390000000002
 30
0.0
 10
25.9254000000001
 20
7.29390000000002
 30
0.0
 10
25.69720000000009
 20
7.33429999999996
 30
0.0
 10
25.48610000000018
 20
7.415799999999972
 30
0.0
  0
SPLINE
  5
E1
330
76
100
AcDbEntity
  8
LAYER_1
 62
     7
100
AcDbSpline
210
0.0
220
0.0
230
1.0
 70
     8
 71
     3
 72
     8
 73
     4
 74
     0
 42
0.00000001
 43
0.00000001
 40
0.5454545454545455
 40
0.5454545454545455
 40
0.5454545454545455
 40
0.5454545454545455
 40
0.5909090909090909
 40
0.5909090909090909
 40
0.5909090909090909
 40
0.5909090909090909
 10
25.48610000000018
 20
7.415799999999972
 30
0.0
 10
25.27640000000009
 20
7.497200000000037
 30
0.0
 10
25.09170000000005
 20
7.616600000000028
 30
0.0
 10
24.93220000000007
 20
7.774499999999962
 30
0.0
  0
SPLINE
  5
E2
330
76
100
AcDbEntity
  8
LAYER_1
 62
     7
100
AcDbSpline
210
0.0
220
0.0
230
1.0
 70
     8
 71
     3
 72
     8
 73
     4
 74
     0
 42
0.00000001
 43
0.00000001
 40
0.5909090909090909
 40
0.5909090909090909
 40
0.5909090909090909
 40
0.5909090909090909
 40
0.6363636363636364
 40
0.6363636363636364
 40
0.6363636363636364
 40
0.6363636363636364
 10
24.93220000000007
 20
7.774499999999962
 30
0.0
 10
24.77420000000008
 20
7.929200000000025
 30
0.0
 10
24.65370000000011
 20
8.11139999999999
 30
0.0
 10
24.56860000000005
 20
8.321300000000031
 30
0.0
  0
SPLINE
  5
E3
330
76
100
AcDbEntity
  8
LAYER_1
 62
     7
100
AcDbSpline
210
0.0
220
0.0
230
1.0
 70
     8
 71
     3
 72
     8
 73
     4
 74
     0
 42
0.00000001
 43
0.00000001
 40
0.6363636363636364
 40
0.6363636363636364
 40
0.6363636363636364
 40
0.6363636363636364
 40
0.6818181818181818
 40
0.6818181818181818
 40
0.6818181818181818
 40
0.6818181818181818
 10
24.56860000000005
 20
8.321300000000031
 30
0.0
 10
24.48390000000011
 20
8.531299999999964
 30
0.0
 10
24.44150000000023
 20
8.755400000000025
 30
0.0
 10
24.44150000000023
 20
8.992200000000006
 30
0.0
  0
SPLINE
  5
E4
330
76
100
AcDbEntity
  8
LAYER_1
 62
     7
100
AcDbSpline
210
0.0
220
0.0
230
1.0
 70
     8
 71
     3
 72
     8
 73
     4
 74
     0
 42
0.00000001
 43
0.00000001
 40
0.6818181818181818
 40
0.6818181818181818
 40
0.6818181818181818
 40
0.6818181818181818
 40
0.7272727272727272
 40
0.7272727272727272
 40
0.7272727272727272
 40
0.7272727272727272
 10
24.44150000000023
 20
8.992200000000006
 30
0.0
 10
24.44150000000023
 20
9.230000000000016
 30
0.0
 10
24.48390000000011
 20
9.453099999999992
 30
0.0
 10
24.56860000000005
 20
9.661399999999986
 30
0.0
  0
SPLINE
  5
E5
330
76
100
AcDbEntity
  8
LAYER_1
 62
     7
100
AcDbSpline
210
0.0
220
0.0
230
1.0
 70
     8
 71
     3
 72
     8
 73
     4
 74
     0
 42
0.00000001
 43
0.00000001
 40
0.7272727272727272
 40
0.7272727272727272
 40
0.7272727272727272
 40
0.7272727272727272
 40
0.7727272727272726
 40
0.7727272727272726
 40
0.7727272727272726
 40
0.7727272727272726
 10
24.56860000000005
 20
9.661399999999986
 30
0.0
 10
24.65370000000011
 20
9.870100000000049
 30
0.0
 10
24.77600000000013
 20
10.05279999999997
 30
0.0
 10
24.93680000000009
 20
10.21080000000002
 30
0.0
  0
SPLINE
  5
E6
330
76
100
AcDbEntity
  8
LAYER_1
 62
     7
100
AcDbSpline
210
0.0
220
0.0
230
1.0
 70
     8
 71
     3
 72
     8
 73
     4
 74
     0
 42
0.00000001
 43
0.00000001
 40
0.7727272727272726
 40
0.7727272727272726
 40
0.7727272727272726
 40
0.7727272727272726
 40
0.818181818181818
 40
0.818181818181818
 40
0.818181818181818
 40
0.818181818181818
 10
24.93680000000009
 20
10.21080000000002
 30
0.0
 10
25.09760000000005
 20
10.36999999999999
 30
0.0
 10
25.28160000000024
 20
10.49070000000002
 30
0.0
 10
25.49000000000012
 20
10.57229999999998
 30
0.0
  0
SPLINE
  5
E7
330
76
100
AcDbEntity
  8
LAYER_1
 62
     7
100
AcDbSpline
210
0.0
220
0.0
230
1.0
 70
     8
 71
     3
 72
     8
 73
     4
 74
     0
 42
0.00000001
 43
0.00000001
 40
0.818181818181818
 40
0.818181818181818
 40
0.818181818181818
 40
0.818181818181818
 40
0.8636363636363634
 40
0.8636363636363634
 40
0.8636363636363634
 40
0.8636363636363634
 10
25.49000000000012
 20
10.57229999999998
 30
0.0
 10
25.6974000000002
 20
10.65460000000001
 30
0.0
 10
25.92250000000018
 20
10.69560000000003
 30
0.0
 10
26.16430000000014
 20
10.69560000000003
 30
0.0
  0
SPLINE
  5
E8
330
76
100
AcDbEntity
  8
LAYER_1
 62
     7
100
AcDbSpline
210
0.0
220
0.0
230
1.0
 70
     8
 71
     3
 72
     8
 73
     4
 74
     0
 42
0.00000001
 43
0.00000001
 40
0.8636363636363634
 40
0.8636363636363634
 40
0.8636363636363634
 40
0.8636363636363634
 40
0.9090909090909088
 40
0.9090909090909088
 40
0.9090909090909088
 40
0.9090909090909088
 10
26.16430000000014
 20
10.69560000000003
 30
0.0
 10
26.35450000000006
 20
10.69560000000003
 30
0.0
 10
26.5354000000001
 20
10.66739999999999
 30
0.0
 10
26.70840000000019
 20
10.61210000000001
 30
0.0
  0
SPLINE
  5
E9
330
76
100
AcDbEntity
  8
LAYER_1
 62
     7
100
AcDbSpline
210
0.0
220
0.0
230
1.0
 70
     8
 71
     3
 72
     8
 73
     4
 74
     0
 42
0.00000001
 43
0.00000001
 40
0.9090909090909088
 40
0.9090909090909088
 40
0.9090909090909088
 40
0.9090909090909088
 40
0.9545454545454543
 40
0.9545454545454543
 40
0.9545454545454543
 40
0.9545454545454543
 10
26.70840000000019
 20
10.61210000000001
 30
0.0
 10
26.88060000000014
 20
10.55700000000004
 30
0.0
 10
27.04800000000018
 20
10.47370000000003
 30
0.0
 10
27.21030000000013
 20
10.36160000000003
 30
0.0
  0
SPLINE
  5
EA
330
76
100
AcDbEntity
  8
LAYER_1
 62
     7
100
AcDbSpline
210
0.0
220
0.0
230
1.0
 70
     8
 71
     3
 72
     8
 73
     4
 74
     0
 42
0.00000001
 43
0.00000001
 40
0.2857142857142857
 40
0.2857142857142857
 40
0.2857142857142857
 40
0.2857142857142857
 40
0.4285714285714286
 40
0.4285714285714286
 40
0.4285714285714286
 40
0.4285714285714286
 10
32.5715000000002
 20
9.390500000000024
 30
0.0
 10
32.55200000000013
 20
9.437499999999988
 30
0.0
 10
32.53180000000011
 20
9.491899999999998
 30
0.0
 10
32.51150000000014
 20
9.553599999999996
 30
0.0
  0
SPLINE
  5
EB
330
76
100
AcDbEntity
  8
LAYER_1
 62
     7
100
AcDbSpline
210
0.0
220
0.0
230
1.0
 70
     8
 71
     3
 72
     8
 73
     4
 74
     0
 42
0.00000001
 43
0.00000001
 40
0.4285714285714286
 40
0.4285714285714286
 40
0.4285714285714286
 40
0.4285714285714286
 40
0.5714285714285714
 40
0.5714285714285714
 40
0.5714285714285714
 40
0.5714285714285714
 10
32.51150000000014
 20
9.553599999999996
 30
0.0
 10
32.49120000000006
 20
9.614399999999968
 30
0.0
 10
32.46970000000016
 20
9.682699999999988
 30
0.0
 10
32.44930000000012
 20
9.75769999999998
 30
0.0
  0
SPLINE
  5
EC
330
76
100
AcDbEntity
  8
LAYER_1
 62
     7
100
AcDbSpline
210
0.0
220
0.0
230
1.0
 70
     8
 71
     3
 72
     8
 73
     4
 74
     0
 42
0.00000001
 43
0.00000001
 40
0.5714285714285714
 40
0.5714285714285714
 40
0.5714285714285714
 40
0.5714285714285714
 40
0.7142857142857142
 40
0.7142857142857142
 40
0.7142857142857142
 40
0.7142857142857142
 10
32.44930000000012
 20
9.75769999999998
 30
0.0
 10
32.43140000000011
 20
9.686700000000048
 30
0.0
 10
32.41340000000014
 20
9.620400000000028
 30
0.0
 10
32.39310000000017
 20
9.559200000000045
 30
0.0
  0
SPLINE
  5
ED
330
76
100
AcDbEntity
  8
LAYER_1
 62
     7
100
AcDbSpline
210
0.0
220
0.0
230
1.0
 70
     8
 71
     3
 72
     8
 73
     4
 74
     0
 42
0.00000001
 43
0.00000001
 40
0.7142857142857142
 40
0.7142857142857142
 40
0.7142857142857142
 40
0.7142857142857142
 40
0.857142857142857
 40
0.857142857142857
 40
0.857142857142857
 40
0.857142857142857
 10
32.39310000000017
 20
9.559200000000045
 30
0.0
 10
32.37370000000017
 20
9.497800000000002
 30
0.0
 10
32.35300000000008
 20
9.442400000000017
 30
0.0
 10
32.3327000000001
 20
9.390500000000024
 30
0.0
  0
SPLINE
  5
EE
330
76
100
AcDbEntity
  8
LAYER_1
 62
     7
100
AcDbSpline
210
0.0
220
0.0
230
1.0
 70
     8
 71
     3
 72
     8
 73
     4
 74
     0
 42
0.00000001
 43
0.00000001
 40
0.0833333333333333
 40
0.0833333333333333
 40
0.0833333333333333
 40
0.0833333333333333
 40
0.1666666666666667
 40
0.1666666666666667
 40
0.1666666666666667
 40
0.1666666666666667
 10
38.7685000000002
 20
7.855500000000015
 30
0.0
 10
39.01160000000004
 20
7.855500000000015
 30
0.0
 10
39.19440000000019
 20
7.871300000000025
 30
0.0
 10
39.31540000000011
 20
7.904100000000025
 30
0.0
  0
SPLINE
  5
EF
330
76
100
AcDbEntity
  8
LAYER_1
 62
     7
100
AcDbSpline
210
0.0
220
0.0
230
1.0
 70
     8
 71
     3
 72
     8
 73
     4
 74
     0
 42
0.00000001
 43
0.00000001
 40
0.1666666666666667
 40
0.1666666666666667
 40
0.1666666666666667
 40
0.1666666666666667
 40
0.25
 40
0.25
 40
0.25
 40
0.25
 10
39.31540000000011
 20
7.904100000000025
 30
0.0
 10
39.43770000000013
 20
7.936200000000005
 30
0.0
 10
39.5428000000001
 20
7.991300000000034
 30
0.0
 10
39.63320000000014
 20
8.067600000000008
 30
0.0
  0
SPLINE
  5
F0
330
76
100
AcDbEntity
  8
LAYER_1
 62
     7
100
AcDbSpline
210
0.0
220
0.0
230
1.0
 70
     8
 71
     3
 72
     8
 73
     4
 74
     0
 42
0.00000001
 43
0.00000001
 40
0.25
 40
0.25
 40
0.25
 40
0.25
 40
0.3333333333333333
 40
0.3333333333333333
 40
0.3333333333333333
 40
0.3333333333333333
 10
39.63320000000014
 20
8.067600000000008
 30
0.0
 10
39.75570000000006
 20
8.172900000000038
 30
0.0
 10
39.84730000000014
 20
8.302699999999996
 30
0.0
 10
39.9079000000001
 20
8.457800000000015
 30
0.0
  0
SPLINE
  5
F1
330
76
100
AcDbEntity
  8
LAYER_1
 62
     7
100
AcDbSpline
210
0.0
220
0.0
230
1.0
 70
     8
 71
     3
 72
     8
 73
     4
 74
     0
 42
0.00000001
 43
0.00000001
 40
0.3333333333333333
 40
0.3333333333333333
 40
0.3333333333333333
 40
0.3333333333333333
 40
0.4166666666666666
 40
0.4166666666666666
 40
0.4166666666666666
 40
0.4166666666666666
 10
39.9079000000001
 20
8.457800000000015
 30
0.0
 10
39.96940000000016
 20
8.613800000000005
 30
0.0
 10
40.0001000000001
 20
8.794799999999992
 30
0.0
 10
40.0001000000001
 20
9.001499999999997
 30
0.0
  0
SPLINE
  5
F2
330
76
100
AcDbEntity
  8
LAYER_1
 62
     7
100
AcDbSpline
210
0.0
220
0.0
230
1.0
 70
     8
 71
     3
 72
     8
 73
     4
 74
     0
 42
0.00000001
 43
0.00000001
 40
0.4166666666666666
 40
0.4166666666666666
 40
0.4166666666666666
 40
0.4166666666666666
 40
0.4999999999999999
 40
0.4999999999999999
 40
0.4999999999999999
 40
0.4999999999999999
 10
40.0001000000001
 20
9.001499999999997
 30
0.0
 10
40.0001000000001
 20
9.207699999999985
 30
0.0
 10
39.96940000000016
 20
9.388199999999959
 30
0.0
 10
39.9079000000001
 20
9.544300000000005
 30
0.0
  0
SPLINE
  5
F3
330
76
100
AcDbEntity
  8
LAYER_1
 62
     7
100
AcDbSpline
210
0.0
220
0.0
230
1.0
 70
     8
 71
     3
 72
     8
 73
     4
 74
     0
 42
0.00000001
 43
0.00000001
 40
0.4999999999999999
 40
0.4999999999999999
 40
0.4999999999999999
 40
0.4999999999999999
 40
0.5833333333333333
 40
0.5833333333333333
 40
0.5833333333333333
 40
0.5833333333333333
 10
39.9079000000001
 20
9.544300000000005
 30
0.0
 10
39.84730000000014
 20
9.699699999999979
 30
0.0
 10
39.75570000000006
 20
9.829900000000002
 30
0.0
 10
39.63320000000014
 20
9.934500000000012
 30
0.0
  0
SPLINE
  5
F4
330
76
100
AcDbEntity
  8
LAYER_1
 62
     7
100
AcDbSpline
210
0.0
220
0.0
230
1.0
 70
     8
 71
     3
 72
     8
 73
     4
 74
     0
 42
0.00000001
 43
0.00000001
 40
0.5833333333333333
 40
0.5833333333333333
 40
0.5833333333333333
 40
0.5833333333333333
 40
0.6666666666666666
 40
0.6666666666666666
 40
0.6666666666666666
 40
0.6666666666666666
 10
39.63320000000014
 20
9.934500000000012
 30
0.0
 10
39.54200000000008
 20
10.01069999999998
 30
0.0
 10
39.43160000000012
 20
10.06600000000002
 30
0.0
 10
39.3051000000001
 20
10.0982
 30
0.0
  0
SPLINE
  5
F5
330
76
100
AcDbEntity
  8
LAYER_1
 62
     7
100
AcDbSpline
210
0.0
220
0.0
230
1.0
 70
     8
 71
     3
 72
     8
 73
     4
 74
     0
 42
0.00000001
 43
0.00000001
 40
0.6666666666666666
 40
0.6666666666666666
 40
0.6666666666666666
 40
0.6666666666666666
 40
0.75
 40
0.75
 40
0.75
 40
0.75
 10
39.3051000000001
 20
10.0982
 30
0.0
 10
39.17760000000015
 20
10.13039999999998
 30
0.0
 10
38.97770000000023
 20
10.1464
 30
0.0
 10
38.7065000000002
 20
10.1464
 30
0.0
  0
SPLINE
  5
F6
330
76
100
AcDbEntity
  8
LAYER_1
 62
     7
100
AcDbSpline
210
0.0
220
0.0
230
1.0
 70
     8
 71
     3
 72
     8
 73
     4
 74
     0
 42
0.00000001
 43
0.00000001
 40
0.1666666666666667
 40
0.1666666666666667
 40
0.1666666666666667
 40
0.1666666666666667
 40
0.25
 40
0.25
 40
0.25
 40
0.25
 10
38.50950000000019
 20
10.6175
 30
0.0
 10
38.97160000000011
 20
10.6175
 30
0.0
 10
39.29620000000011
 20
10.59379999999999
 30
0.0
 10
39.48410000000013
 20
10.54810000000001
 30
0.0
  0
SPLINE
  5
F7
330
76
100
AcDbEntity
  8
LAYER_1
 62
     7
100
AcDbSpline
210
0.0
220
0.0
230
1.0
 70
     8
 71
     3
 72
     8
 73
     4
 74
     0
 42
0.00000001
 43
0.00000001
 40
0.25
 40
0.25
 40
0.25
 40
0.25
 40
0.3333333333333333
 40
0.3333333333333333
 40
0.3333333333333333
 40
0.3333333333333333
 10
39.48410000000013
 20
10.54810000000001
 30
0.0
 10
39.67180000000015
 20
10.5016
 30
0.0
 10
39.83630000000004
 20
10.42349999999997
 30
0.0
 10
39.97860000000009
 20
10.31500000000002
 30
0.0
  0
SPLINE
  5
F8
330
76
100
AcDbEntity
  8
LAYER_1
 62
     7
100
AcDbSpline
210
0.0
220
0.0
230
1.0
 70
     8
 71
     3
 72
     8
 73
     4
 74
     0
 42
0.00000001
 43
0.00000001
 40
0.3333333333333333
 40
0.3333333333333333
 40
0.3333333333333333
 40
0.3333333333333333
 40
0.4166666666666666
 40
0.4166666666666666
 40
0.4166666666666666
 40
0.4166666666666666
 10
39.97860000000009
 20
10.31500000000002
 30
0.0
 10
40.16560000000013
 20
10.1714
 30
0.0
 10
40.3074000000001
 20
9.987899999999994
 30
0.0
 10
40.40390000000016
 20
9.763999999999996
 30
0.0
  0
SPLINE
  5
F9
330
76
100
AcDbEntity
  8
LAYER_1
 62
     7
100
AcDbSpline
210
0.0
220
0.0
230
1.0
 70
     8
 71
     3
 72
     8
 73
     4
 74
     0
 42
0.00000001
 43
0.00000001
 40
0.4166666666666666
 40
0.4166666666666666
 40
0.4166666666666666
 40
0.4166666666666666
 40
0.4999999999999999
 40
0.4999999999999999
 40
0.4999999999999999
 40
0.4999999999999999
 10
40.40390000000016
 20
9.763999999999996
 30
0.0
 10
40.50050000000016
 20
9.53989999999999
 30
0.0
 10
40.54910000000012
 20
9.283800000000008
 30
0.0
 10
40.54910000000012
 20
8.99709999999998
 30
0.0
  0
SPLINE
  5
FA
330
76
100
AcDbEntity
  8
LAYER_1
 62
     7
100
AcDbSpline
210
0.0
220
0.0
230
1.0
 70
     8
 71
     3
 72
     8
 73
     4
 74
     0
 42
0.00000001
 43
0.00000001
 40
0.4999999999999999
 40
0.4999999999999999
 40
0.4999999999999999
 40
0.4999999999999999
 40
0.5833333333333333
 40
0.5833333333333333
 40
0.5833333333333333
 40
0.5833333333333333
 10
40.54910000000012
 20
8.99709999999998
 30
0.0
 10
40.54910000000012
 20
8.70949999999998
 30
0.0
 10
40.50050000000016
 20
8.45429999999997
 30
0.0
 10
40.40390000000016
 20
8.232200000000024
 30
0.0
  0
SPLINE
  5
FB
330
76
100
AcDbEntity
  8
LAYER_1
 62
     7
100
AcDbSpline
210
0.0
220
0.0
230
1.0
 70
     8
 71
     3
 72
     8
 73
     4
 74
     0
 42
0.00000001
 43
0.00000001
 40
0.5833333333333333
 40
0.5833333333333333
 40
0.5833333333333333
 40
0.5833333333333333
 40
0.6666666666666666
 40
0.6666666666666666
 40
0.6666666666666666
 40
0.6666666666666666
 10
40.40390000000016
 20
8.232200000000024
 30
0.0
 10
40.3074000000001
 20
8.010500000000032
 30
0.0
 10
40.16560000000013
 20
7.827399999999985
 30
0.0
 10
39.97860000000009
 20
7.682699999999986
 30
0.0
  0
SPLINE
  5
FC
330
76
100
AcDbEntity
  8
LAYER_1
 62
     7
100
AcDbSpline
210
0.0
220
0.0
230
1.0
 70
     8
 71
     3
 72
     8
 73
     4
 74
     0
 42
0.00000001
 43
0.00000001
 40
0.6666666666666666
 40
0.6666666666666666
 40
0.6666666666666666
 40
0.6666666666666666
 40
0.75
 40
0.75
 40
0.75
 40
0.75
 10
39.97860000000009
 20
7.682699999999986
 30
0.0
 10
39.83630000000004
 20
7.574299999999978
 30
0.0
 10
39.67570000000021
 20
7.496400000000014
 30
0.0
 10
39.49520000000006
 20
7.449600000000056
 30
0.0
  0
SPLINE
  5
FD
330
76
100
AcDbEntity
  8
LAYER_1
 62
     7
100
AcDbSpline
210
0.0
220
0.0
230
1.0
 70
     8
 71
     3
 72
     8
 73
     4
 74
     0
 42
0.00000001
 43
0.00000001
 40
0.75
 40
0.75
 40
0.75
 40
0.75
 40
0.8333333333333334
 40
0.8333333333333334
 40
0.8333333333333334
 40
0.8333333333333334
 10
39.49520000000006
 20
7.449600000000056
 30
0.0
 10
39.31420000000018
 20
7.403199999999998
 30
0.0
 10
39.03360000000011
 20
7.380300000000006
 30
0.0
 10
38.65120000000022
 20
7.380300000000006
 30
0.0
  0
SPLINE
  5
FE
330
76
100
AcDbEntity
  8
LAYER_1
 62
     7
100
AcDbSpline
210
0.0
220
0.0
230
1.0
 70
     8
 71
     3
 72
     8
 73
     4
 74
     0
 42
0.00000001
 43
0.00000001
 40
0.0833333333333333
 40
0.0833333333333333
 40
0.0833333333333333
 40
0.0833333333333333
 40
0.1666666666666667
 40
0.1666666666666667
 40
0.1666666666666667
 40
0.1666666666666667
 10
19.1802000000002
 20
3.637299999999954
 30
0.0
 10
19.35020000000009
 20
3.637299999999954
 30
0.0
 10
19.47820000000022
 20
3.648200000000046
 30
0.0
 10
19.56300000000011
 20
3.670500000000021
 30
0.0
  0
SPLINE
  5
FF
330
76
100
AcDbEntity
  8
LAYER_1
 62
     7
100
AcDbSpline
210
0.0
220
0.0
230
1.0
 70
     8
 71
     3
 72
     8
 73
     4
 74
     0
 42
0.00000001
 43
0.00000001
 40
0.1666666666666667
 40
0.1666666666666667
 40
0.1666666666666667
 40
0.1666666666666667
 40
0.25
 40
0.25
 40
0.25
 40
0.25
 10
19.56300000000011
 20
3.670500000000021
 30
0.0
 10
19.64810000000017
 20
3.693600000000019
 30
0.0
 10
19.72180000000023
 20
3.73190000000001
 30
0.0
 10
19.78530000000012
 20
3.7856
 30
0.0
  0
SPLINE
  5
100
330
76
100
AcDbEntity
  8
LAYER_1
 62
     7
100
AcDbSpline
210
0.0
220
0.0
230
1.0
 70
     8
 71
     3
 72
     8
 73
     4
 74
     0
 42
0.00000001
 43
0.00000001
 40
0.25
 40
0.25
 40
0.25
 40
0.25
 40
0.3333333333333333
 40
0.3333333333333333
 40
0.3333333333333333
 40
0.3333333333333333
 10
19.78530000000012
 20
3.7856
 30
0.0
 10
19.87100000000019
 20
3.858699999999993
 30
0.0
 10
19.93520000000015
 20
3.9497
 30
0.0
 10
19.97810000000011
 20
4.058699999999971
 30
0.0
  0
SPLINE
  5
101
330
76
100
AcDbEntity
  8
LAYER_1
 62
     7
100
AcDbSpline
210
0.0
220
0.0
230
1.0
 70
     8
 71
     3
 72
     8
 73
     4
 74
     0
 42
0.00000001
 43
0.00000001
 40
0.3333333333333333
 40
0.3333333333333333
 40
0.3333333333333333
 40
0.3333333333333333
 40
0.4166666666666666
 40
0.4166666666666666
 40
0.4166666666666666
 40
0.4166666666666666
 10
19.97810000000011
 20
4.058699999999971
 30
0.0
 10
20.02060000000006
 20
4.167399999999988
 30
0.0
 10
20.04220000000012
 20
4.294300000000028
 30
0.0
 10
20.04220000000012
 20
4.43880000000002
 30
0.0
  0
SPLINE
  5
102
330
76
100
AcDbEntity
  8
LAYER_1
 62
     7
100
AcDbSpline
210
0.0
220
0.0
230
1.0
 70
     8
 71
     3
 72
     8
 73
     4
 74
     0
 42
0.00000001
 43
0.00000001
 40
0.4166666666666666
 40
0.4166666666666666
 40
0.4166666666666666
 40
0.4166666666666666
 40
0.4999999999999999
 40
0.4999999999999999
 40
0.4999999999999999
 40
0.4999999999999999
 10
20.04220000000012
 20
4.43880000000002
 30
0.0
 10
20.04220000000012
 20
4.583500000000019
 30
0.0
 10
20.02060000000006
 20
4.709899999999989
 30
0.0
 10
19.97810000000011
 20
4.819099999999965
 30
0.0
  0
SPLINE
  5
103
330
76
100
AcDbEntity
  8
LAYER_1
 62
     7
100
AcDbSpline
210
0.0
220
0.0
230
1.0
 70
     8
 71
     3
 72
     8
 73
     4
 74
     0
 42
0.00000001
 43
0.00000001
 40
0.4999999999999999
 40
0.4999999999999999
 40
0.4999999999999999
 40
0.4999999999999999
 40
0.5833333333333333
 40
0.5833333333333333
 40
0.5833333333333333
 40
0.5833333333333333
 10
19.97810000000011
 20
4.819099999999965
 30
0.0
 10
19.93520000000015
 20
4.927700000000035
 30
0.0
 10
19.87100000000019
 20
5.018700000000043
 30
0.0
 10
19.78530000000012
 20
5.091999999999985
 30
0.0
  0
SPLINE
  5
104
330
76
100
AcDbEntity
  8
LAYER_1
 62
     7
100
AcDbSpline
210
0.0
220
0.0
230
1.0
 70
     8
 71
     3
 72
     8
 73
     4
 74
     0
 42
0.00000001
 43
0.00000001
 40
0.5833333333333333
 40
0.5833333333333333
 40
0.5833333333333333
 40
0.5833333333333333
 40
0.6666666666666666
 40
0.6666666666666666
 40
0.6666666666666666
 40
0.6666666666666666
 10
19.78530000000012
 20
5.091999999999985
 30
0.0
 10
19.72170000000006
 20
5.145500000000025
 30
0.0
 10
19.64410000000017
 20
5.183899999999964
 30
0.0
 10
19.55570000000018
 20
5.207000000000017
 30
0.0
  0
SPLINE
  5
105
330
76
100
AcDbEntity
  8
LAYER_1
 62
     7
100
AcDbSpline
210
0.0
220
0.0
230
1.0
 70
     8
 71
     3
 72
     8
 73
     4
 74
     0
 42
0.00000001
 43
0.00000001
 40
0.6666666666666666
 40
0.6666666666666666
 40
0.6666666666666666
 40
0.6666666666666666
 40
0.75
 40
0.75
 40
0.75
 40
0.75
 10
19.55570000000018
 20
5.207000000000017
 30
0.0
 10
19.46640000000022
 20
5.22970000000006
 30
0.0
 10
19.32620000000018
 20
5.240400000000034
 30
0.0
 10
19.13680000000018
 20
5.240400000000034
 30
0.0
  0
SPLINE
  5
106
330
76
100
AcDbEntity
  8
LAYER_1
 62
     7
100
AcDbSpline
210
0.0
220
0.0
230
1.0
 70
     8
 71
     3
 72
     8
 73
     4
 74
     0
 42
0.00000001
 43
0.00000001
 40
0.1666666666666667
 40
0.1666666666666667
 40
0.1666666666666667
 40
0.1666666666666667
 40
0.25
 40
0.25
 40
0.25
 40
0.25
 10
18.99890000000004
 20
5.570300000000028
 30
0.0
 10
19.32200000000017
 20
5.570300000000028
 30
0.0
 10
19.54930000000022
 20
5.553799999999997
 30
0.0
 10
19.68100000000006
 20
5.521999999999972
 30
0.0
  0
SPLINE
  5
107
330
76
100
AcDbEntity
  8
LAYER_1
 62
     7
100
AcDbSpline
210
0.0
220
0.0
230
1.0
 70
     8
 71
     3
 72
     8
 73
     4
 74
     0
 42
0.00000001
 43
0.00000001
 40
0.25
 40
0.25
 40
0.25
 40
0.25
 40
0.3333333333333333
 40
0.3333333333333333
 40
0.3333333333333333
 40
0.3333333333333333
 10
19.68100000000006
 20
5.521999999999972
 30
0.0
 10
19.81250000000012
 20
5.488900000000019
 30
0.0
 10
19.92750000000021
 20
5.434400000000005
 30
0.0
 10
20.02720000000014
 20
5.358299999999982
 30
0.0
  0
SPLINE
  5
108
330
76
100
AcDbEntity
  8
LAYER_1
 62
     7
100
AcDbSpline
210
0.0
220
0.0
230
1.0
 70
     8
 71
     3
 72
     8
 73
     4
 74
     0
 42
0.00000001
 43
0.00000001
 40
0.3333333333333333
 40
0.3333333333333333
 40
0.3333333333333333
 40
0.3333333333333333
 40
0.4166666666666666
 40
0.4166666666666666
 40
0.4166666666666666
 40
0.4166666666666666
 10
20.02720000000014
 20
5.358299999999982
 30
0.0
 10
20.15780000000012
 20
5.257899999999982
 30
0.0
 10
20.25750000000004
 20
5.129400000000006
 30
0.0
 10
20.32490000000009
 20
4.972700000000052
 30
0.0
  0
SPLINE
  5
109
330
76
100
AcDbEntity
  8
LAYER_1
 62
     7
100
AcDbSpline
210
0.0
220
0.0
230
1.0
 70
     8
 71
     3
 72
     8
 73
     4
 74
     0
 42
0.00000001
 43
0.00000001
 40
0.4166666666666666
 40
0.4166666666666666
 40
0.4166666666666666
 40
0.4166666666666666
 40
0.4999999999999999
 40
0.4999999999999999
 40
0.4999999999999999
 40
0.4999999999999999
 10
20.32490000000009
 20
4.972700000000052
 30
0.0
 10
20.39290000000005
 20
4.815400000000025
 30
0.0
 10
20.42660000000019
 20
4.636599999999991
 30
0.0
 10
20.42660000000019
 20
4.436000000000051
 30
0.0
  0
SPLINE
  5
10A
330
76
100
AcDbEntity
  8
LAYER_1
 62
     7
100
AcDbSpline
210
0.0
220
0.0
230
1.0
 70
     8
 71
     3
 72
     8
 73
     4
 74
     0
 42
0.00000001
 43
0.00000001
 40
0.4999999999999999
 40
0.4999999999999999
 40
0.4999999999999999
 40
0.4999999999999999
 40
0.5833333333333333
 40
0.5833333333333333
 40
0.5833333333333333
 40
0.5833333333333333
 10
20.42660000000019
 20
4.436000000000051
 30
0.0
 10
20.42660000000019
 20
4.23450000000003
 30
0.0
 10
20.39290000000005
 20
4.056100000000007
 30
0.0
 10
20.32490000000009
 20
3.900700000000035
 30
0.0
  0
SPLINE
  5
10B
330
76
100
AcDbEntity
  8
LAYER_1
 62
     7
100
AcDbSpline
210
0.0
220
0.0
230
1.0
 70
     8
 71
     3
 72
     8
 73
     4
 74
     0
 42
0.00000001
 43
0.00000001
 40
0.5833333333333333
 40
0.5833333333333333
 40
0.5833333333333333
 40
0.5833333333333333
 40
0.6666666666666666
 40
0.6666666666666666
 40
0.6666666666666666
 40
0.6666666666666666
 10
20.32490000000009
 20
3.900700000000035
 30
0.0
 10
20.25750000000004
 20
3.745500000000013
 30
0.0
 10
20.15780000000012
 20
3.617499999999996
 30
0.0
 10
20.02720000000014
 20
3.515800000000013
 30
0.0
  0
SPLINE
  5
10C
330
76
100
AcDbEntity
  8
LAYER_1
 62
     7
100
AcDbSpline
210
0.0
220
0.0
230
1.0
 70
     8
 71
     3
 72
     8
 73
     4
 74
     0
 42
0.00000001
 43
0.00000001
 40
0.6666666666666666
 40
0.6666666666666666
 40
0.6666666666666666
 40
0.6666666666666666
 40
0.75
 40
0.75
 40
0.75
 40
0.75
 10
20.02720000000014
 20
3.515800000000013
 30
0.0
 10
19.92750000000021
 20
3.440100000000001
 30
0.0
 10
19.8151000000002
 20
3.385399999999983
 30
0.0
 10
19.68920000000018
 20
3.352799999999989
 30
0.0
  0
SPLINE
  5
10D
330
76
100
AcDbEntity
  8
LAYER_1
 62
     7
100
AcDbSpline
210
0.0
220
0.0
230
1.0
 70
     8
 71
     3
 72
     8
 73
     4
 74
     0
 42
0.00000001
 43
0.00000001
 40
0.75
 40
0.75
 40
0.75
 40
0.75
 40
0.8333333333333334
 40
0.8333333333333334
 40
0.8333333333333334
 40
0.8333333333333334
 10
19.68920000000018
 20
3.352799999999989
 30
0.0
 10
19.56190000000013
 20
3.319900000000042
 30
0.0
 10
19.3654000000002
 20
3.304099999999977
 30
0.0
 10
19.09840000000018
 20
3.304099999999977
 30
0.0
  0
SPLINE
  5
10E
330
76
100
AcDbEntity
  8
LAYER_1
 62
     7
100
AcDbSpline
210
0.0
220
0.0
230
1.0
 70
     8
 71
     3
 72
     8
 73
     4
 74
     0
 42
0.00000001
 43
0.00000001
 40
0.0384615384615385
 40
0.0384615384615385
 40
0.0384615384615385
 40
0.0384615384615385
 40
0.0769230769230769
 40
0.0769230769230769
 40
0.0769230769230769
 40
0.0769230769230769
 10
27.00720000000012
 20
3.893800000000003
 30
0.0
 10
27.03470000000008
 20
3.792700000000038
 30
0.0
 10
27.08630000000012
 20
3.715599999999986
 30
0.0
 10
27.16010000000013
 20
3.662500000000013
 30
0.0
  0
SPLINE
  5
10F
330
76
100
AcDbEntity
  8
LAYER_1
 62
     7
100
AcDbSpline
210
0.0
220
0.0
230
1.0
 70
     8
 71
     3
 72
     8
 73
     4
 74
     0
 42
0.00000001
 43
0.00000001
 40
0.0769230769230769
 40
0.0769230769230769
 40
0.0769230769230769
 40
0.0769230769230769
 40
0.1153846153846154
 40
0.1153846153846154
 40
0.1153846153846154
 40
0.1153846153846154
 10
27.16010000000013
 20
3.662500000000013
 30
0.0
 10
27.23470000000017
 20
3.609700000000049
 30
0.0
 10
27.32950000000012
 20
3.583000000000003
 30
0.0
 10
27.44510000000022
 20
3.583000000000003
 30
0.0
  0
SPLINE
  5
110
330
76
100
AcDbEntity
  8
LAYER_1
 62
     7
100
AcDbSpline
210
0.0
220
0.0
230
1.0
 70
     8
 71
     3
 72
     8
 73
     4
 74
     0
 42
0.00000001
 43
0.00000001
 40
0.1153846153846154
 40
0.1153846153846154
 40
0.1153846153846154
 40
0.1153846153846154
 40
0.1538461538461539
 40
0.1538461538461539
 40
0.1538461538461539
 40
0.1538461538461539
 10
27.44510000000022
 20
3.583000000000003
 30
0.0
 10
27.55450000000015
 20
3.583000000000003
 30
0.0
 10
27.6413000000002
 20
3.6138
 30
0.0
 10
27.70560000000011
 20
3.674500000000025
 30
0.0
  0
SPLINE
  5
111
330
76
100
AcDbEntity
  8
LAYER_1
 62
     7
100
AcDbSpline
210
0.0
220
0.0
230
1.0
 70
     8
 71
     3
 72
     8
 73
     4
 74
     0
 42
0.00000001
 43
0.00000001
 40
0.1538461538461539
 40
0.1538461538461539
 40
0.1538461538461539
 40
0.1538461538461539
 40
0.1923076923076923
 40
0.1923076923076923
 40
0.1923076923076923
 40
0.1923076923076923
 10
27.70560000000011
 20
3.674500000000025
 30
0.0
 10
27.77050000000014
 20
3.735299999999997
 30
0.0
 10
27.80250000000017
 20
3.816800000000009
 30
0.0
 10
27.80250000000017
 20
3.918299999999986
 30
0.0
  0
SPLINE
  5
112
330
76
100
AcDbEntity
  8
LAYER_1
 62
     7
100
AcDbSpline
210
0.0
220
0.0
230
1.0
 70
     8
 71
     3
 72
     8
 73
     4
 74
     0
 42
0.00000001
 43
0.00000001
 40
0.1923076923076923
 40
0.1923076923076923
 40
0.1923076923076923
 40
0.1923076923076923
 40
0.2307692307692308
 40
0.2307692307692308
 40
0.2307692307692308
 40
0.2307692307692308
 10
27.80250000000017
 20
3.918299999999986
 30
0.0
 10
27.80250000000017
 20
4.052
 30
0.0
 10
27.69220000000017
 20
4.170200000000013
 30
0.0
 10
27.47120000000014
 20
4.274499999999959
 30
0.0
  0
SPLINE
  5
113
330
76
100
AcDbEntity
  8
LAYER_1
 62
     7
100
AcDbSpline
210
0.0
220
0.0
230
1.0
 70
     8
 71
     3
 72
     8
 73
     4
 74
     0
 42
0.00000001
 43
0.00000001
 40
0.2307692307692308
 40
0.2307692307692308
 40
0.2307692307692308
 40
0.2307692307692308
 40
0.2692307692307693
 40
0.2692307692307693
 40
0.2692307692307693
 40
0.2692307692307693
 10
27.47120000000014
 20
4.274499999999959
 30
0.0
 10
27.44030000000009
 20
4.28980000000001
 30
0.0
 10
27.41690000000008
 20
4.302000000000028
 30
0.0
 10
27.40000000000009
 20
4.308599999999996
 30
0.0
  0
SPLINE
  5
114
330
76
100
AcDbEntity
  8
LAYER_1
 62
     7
100
AcDbSpline
210
0.0
220
0.0
230
1.0
 70
     8
 71
     3
 72
     8
 73
     4
 74
     0
 42
0.00000001
 43
0.00000001
 40
0.2692307692307693
 40
0.2692307692307693
 40
0.2692307692307693
 40
0.2692307692307693
 40
0.3076923076923077
 40
0.3076923076923077
 40
0.3076923076923077
 40
0.3076923076923077
 10
27.40000000000009
 20
4.308599999999996
 30
0.0
 10
27.15060000000014
 20
4.430500000000004
 30
0.0
 10
26.98410000000018
 20
4.54020000000005
 30
0.0
 10
26.90140000000007
 20
4.63920000000001
 30
0.0
  0
SPLINE
  5
115
330
76
100
AcDbEntity
  8
LAYER_1
 62
     7
100
AcDbSpline
210
0.0
220
0.0
230
1.0
 70
     8
 71
     3
 72
     8
 73
     4
 74
     0
 42
0.00000001
 43
0.00000001
 40
0.3076923076923077
 40
0.3076923076923077
 40
0.3076923076923077
 40
0.3076923076923077
 40
0.3461538461538462
 40
0.3461538461538462
 40
0.3461538461538462
 40
0.3461538461538462
 10
26.90140000000007
 20
4.63920000000001
 30
0.0
 10
26.81830000000019
 20
4.737600000000008
 30
0.0
 10
26.77670000000021
 20
4.85840000000004
 30
0.0
 10
26.77670000000021
 20
5.000499999999963
 30
0.0
  0
SPLINE
  5
116
330
76
100
AcDbEntity
  8
LAYER_1
 62
     7
100
AcDbSpline
210
0.0
220
0.0
230
1.0
 70
     8
 71
     3
 72
     8
 73
     4
 74
     0
 42
0.00000001
 43
0.00000001
 40
0.3461538461538462
 40
0.3461538461538462
 40
0.3461538461538462
 40
0.3461538461538462
 40
0.3846153846153846
 40
0.3846153846153846
 40
0.3846153846153846
 40
0.3846153846153846
 10
26.77670000000021
 20
5.000499999999963
 30
0.0
 10
26.77670000000021
 20
5.185400000000007
 30
0.0
 10
26.83970000000013
 20
5.335000000000035
 30
0.0
 10
26.96450000000006
 20
5.449700000000002
 30
0.0
  0
SPLINE
  5
117
330
76
100
AcDbEntity
  8
LAYER_1
 62
     7
100
AcDbSpline
210
0.0
220
0.0
230
1.0
 70
     8
 71
     3
 72
     8
 73
     4
 74
     0
 42
0.00000001
 43
0.00000001
 40
0.3846153846153846
 40
0.3846153846153846
 40
0.3846153846153846
 40
0.3846153846153846
 40
0.423076923076923
 40
0.423076923076923
 40
0.423076923076923
 40
0.423076923076923
 10
26.96450000000006
 20
5.449700000000002
 30
0.0
 10
27.08970000000011
 20
5.564300000000022
 30
0.0
 10
27.25390000000005
 20
5.621500000000001
 30
0.0
 10
27.4578000000002
 20
5.621500000000001
 30
0.0
  0
SPLINE
  5
118
330
76
100
AcDbEntity
  8
LAYER_1
 62
     7
100
AcDbSpline
210
0.0
220
0.0
230
1.0
 70
     8
 71
     3
 72
     8
 73
     4
 74
     0
 42
0.00000001
 43
0.00000001
 40
0.423076923076923
 40
0.423076923076923
 40
0.423076923076923
 40
0.423076923076923
 40
0.4615384615384615
 40
0.4615384615384615
 40
0.4615384615384615
 40
0.4615384615384615
 10
27.4578000000002
 20
5.621500000000001
 30
0.0
 10
27.62460000000011
 20
5.621500000000001
 30
0.0
 10
27.76440000000013
 20
5.589499999999969
 30
0.0
 10
27.87690000000009
 20
5.524899999999999
 30
0.0
  0
SPLINE
  5
119
330
76
100
AcDbEntity
  8
LAYER_1
 62
     7
100
AcDbSpline
210
0.0
220
0.0
230
1.0
 70
     8
 71
     3
 72
     8
 73
     4
 74
     0
 42
0.00000001
 43
0.00000001
 40
0.4615384615384615
 40
0.4615384615384615
 40
0.4615384615384615
 40
0.4615384615384615
 40
0.4999999999999999
 40
0.4999999999999999
 40
0.4999999999999999
 40
0.4999999999999999
 10
27.87690000000009
 20
5.524899999999999
 30
0.0
 10
27.98950000000022
 20
5.460500000000035
 30
0.0
 10
28.06720000000007
 20
5.36730000000002
 30
0.0
 10
28.11050000000015
 20
5.247000000000002
 30
0.0
  0
SPLINE
  5
11A
330
76
100
AcDbEntity
  8
LAYER_1
 62
     7
100
AcDbSpline
210
0.0
220
0.0
230
1.0
 70
     8
 71
     3
 72
     8
 73
     4
 74
     0
 42
0.00000001
 43
0.00000001
 40
0.5384615384615383
 40
0.5384615384615383
 40
0.5384615384615383
 40
0.5384615384615383
 40
0.5769230769230768
 40
0.5769230769230768
 40
0.5769230769230768
 40
0.5769230769230768
 10
27.82240000000014
 20
5.098099999999994
 30
0.0
 10
27.77730000000012
 20
5.169599999999996
 30
0.0
 10
27.72760000000007
 20
5.221399999999987
 30
0.0
 10
27.67310000000012
 20
5.254599999999998
 30
0.0
  0
SPLINE
  5
11B
330
76
100
AcDbEntity
  8
LAYER_1
 62
     7
100
AcDbSpline
210
0.0
220
0.0
230
1.0
 70
     8
 71
     3
 72
     8
 73
     4
 74
     0
 42
0.00000001
 43
0.00000001
 40
0.5769230769230768
 40
0.5769230769230768
 40
0.5769230769230768
 40
0.5769230769230768
 40
0.6153846153846152
 40
0.6153846153846152
 40
0.6153846153846152
 40
0.6153846153846152
 10
27.67310000000012
 20
5.254599999999998
 30
0.0
 10
27.61940000000007
 20
5.28780000000001
 30
0.0
 10
27.55690000000011
 20
5.303800000000026
 30
0.0
 10
27.48620000000013
 20
5.303800000000026
 30
0.0
  0
SPLINE
  5
11C
330
76
100
AcDbEntity
  8
LAYER_1
 62
     7
100
AcDbSpline
210
0.0
220
0.0
230
1.0
 70
     8
 71
     3
 72
     8
 73
     4
 74
     0
 42
0.00000001
 43
0.00000001
 40
0.6153846153846152
 40
0.6153846153846152
 40
0.6153846153846152
 40
0.6153846153846152
 40
0.6538461538461536
 40
0.6538461538461536
 40
0.6538461538461536
 40
0.6538461538461536
 10
27.48620000000013
 20
5.303800000000026
 30
0.0
 10
27.38770000000013
 20
5.303800000000026
 30
0.0
 10
27.30890000000019
 20
5.278400000000016
 30
0.0
 10
27.25090000000019
 20
5.226499999999968
 30
0.0
  0
SPLINE
  5
11D
330
76
100
AcDbEntity
  8
LAYER_1
 62
     7
100
AcDbSpline
210
0.0
220
0.0
230
1.0
 70
     8
 71
     3
 72
     8
 73
     4
 74
     0
 42
0.00000001
 43
0.00000001
 40
0.6538461538461536
 40
0.6538461538461536
 40
0.6538461538461536
 40
0.6538461538461536
 40
0.6923076923076921
 40
0.6923076923076921
 40
0.6923076923076921
 40
0.6923076923076921
 10
27.25090000000019
 20
5.226499999999968
 30
0.0
 10
27.19210000000016
 20
5.175299999999994
 30
0.0
 10
27.16330000000011
 20
5.105799999999993
 30
0.0
 10
27.16330000000011
 20
5.019300000000005
 30
0.0
  0
SPLINE
  5
11E
330
76
100
AcDbEntity
  8
LAYER_1
 62
     7
100
AcDbSpline
210
0.0
220
0.0
230
1.0
 70
     8
 71
     3
 72
     8
 73
     4
 74
     0
 42
0.00000001
 43
0.00000001
 40
0.6923076923076921
 40
0.6923076923076921
 40
0.6923076923076921
 40
0.6923076923076921
 40
0.7307692307692305
 40
0.7307692307692305
 40
0.7307692307692305
 40
0.7307692307692305
 10
27.16330000000011
 20
5.019300000000005
 30
0.0
 10
27.16330000000011
 20
4.882600000000014
 30
0.0
 10
27.29100000000006
 20
4.755899999999979
 30
0.0
 10
27.54750000000017
 20
4.638900000000056
 30
0.0
  0
SPLINE
  5
11F
330
76
100
AcDbEntity
  8
LAYER_1
 62
     7
100
AcDbSpline
210
0.0
220
0.0
230
1.0
 70
     8
 71
     3
 72
     8
 73
     4
 74
     0
 42
0.00000001
 43
0.00000001
 40
0.7307692307692305
 40
0.7307692307692305
 40
0.7307692307692305
 40
0.7307692307692305
 40
0.7692307692307689
 40
0.7692307692307689
 40
0.7692307692307689
 40
0.7692307692307689
 10
27.54750000000017
 20
4.638900000000056
 30
0.0
 10
27.56710000000018
 20
4.629099999999998
 30
0.0
 10
27.58220000000011
 20
4.621500000000001
 30
0.0
 10
27.59310000000015
 20
4.61689999999998
 30
0.0
  0
SPLINE
  5
120
330
76
100
AcDbEntity
  8
LAYER_1
 62
     7
100
AcDbSpline
210
0.0
220
0.0
230
1.0
 70
     8
 71
     3
 72
     8
 73
     4
 74
     0
 42
0.00000001
 43
0.00000001
 40
0.7692307692307689
 40
0.7692307692307689
 40
0.7692307692307689
 40
0.7692307692307689
 40
0.8076923076923074
 40
0.8076923076923074
 40
0.8076923076923074
 40
0.8076923076923074
 10
27.59310000000015
 20
4.61689999999998
 30
0.0
 10
27.81750000000016
 20
4.513600000000006
 30
0.0
 10
27.97110000000014
 20
4.412300000000036
 30
0.0
 10
28.05540000000018
 20
4.314200000000046
 30
0.0
  0
SPLINE
  5
121
330
76
100
AcDbEntity
  8
LAYER_1
 62
     7
100
AcDbSpline
210
0.0
220
0.0
230
1.0
 70
     8
 71
     3
 72
     8
 73
     4
 74
     0
 42
0.00000001
 43
0.00000001
 40
0.8076923076923074
 40
0.8076923076923074
 40
0.8076923076923074
 40
0.8076923076923074
 40
0.8461538461538458
 40
0.8461538461538458
 40
0.8461538461538458
 40
0.8461538461538458
 10
28.05540000000018
 20
4.314200000000046
 30
0.0
 10
28.13890000000008
 20
4.215500000000039
 30
0.0
 10
28.18040000000011
 20
4.092499999999999
 30
0.0
 10
28.18040000000011
 20
3.944999999999976
 30
0.0
  0
SPLINE
  5
122
330
76
100
AcDbEntity
  8
LAYER_1
 62
     7
100
AcDbSpline
210
0.0
220
0.0
230
1.0
 70
     8
 71
     3
 72
     8
 73
     4
 74
     0
 42
0.00000001
 43
0.00000001
 40
0.8461538461538458
 40
0.8461538461538458
 40
0.8461538461538458
 40
0.8461538461538458
 40
0.8846153846153842
 40
0.8846153846153842
 40
0.8846153846153842
 40
0.8846153846153842
 10
28.18040000000011
 20
3.944999999999976
 30
0.0
 10
28.18040000000011
 20
3.730400000000023
 30
0.0
 10
28.1125000000001
 20
3.560000000000008
 30
0.0
 10
27.97770000000011
 20
3.433600000000037
 30
0.0
  0
SPLINE
  5
123
330
76
100
AcDbEntity
  8
LAYER_1
 62
     7
100
AcDbSpline
210
0.0
220
0.0
230
1.0
 70
     8
 71
     3
 72
     8
 73
     4
 74
     0
 42
0.00000001
 43
0.00000001
 40
0.8846153846153842
 40
0.8846153846153842
 40
0.8846153846153842
 40
0.8846153846153842
 40
0.9230769230769227
 40
0.9230769230769227
 40
0.9230769230769227
 40
0.9230769230769227
 10
27.97770000000011
 20
3.433600000000037
 30
0.0
 10
27.84230000000021
 20
3.30720000000001
 30
0.0
 10
27.66010000000008
 20
3.243899999999966
 30
0.0
 10
27.42970000000022
 20
3.243899999999966
 30
0.0
  0
SPLINE
  5
124
330
76
100
AcDbEntity
  8
LAYER_1
 62
     7
100
AcDbSpline
210
0.0
220
0.0
230
1.0
 70
     8
 71
     3
 72
     8
 73
     4
 74
     0
 42
0.00000001
 43
0.00000001
 40
0.9230769230769227
 40
0.9230769230769227
 40
0.9230769230769227
 40
0.9230769230769227
 40
0.9615384615384611
 40
0.9615384615384611
 40
0.9615384615384611
 40
0.9615384615384611
 10
27.42970000000022
 20
3.243899999999966
 30
0.0
 10
27.23690000000012
 20
3.243899999999966
 30
0.0
 10
27.07840000000017
 20
3.288000000000013
 30
0.0
 10
26.95500000000006
 20
3.377099999999966
 30
0.0
  0
SPLINE
  5
125
330
76
100
AcDbEntity
  8
LAYER_1
 62
     7
100
AcDbSpline
210
0.0
220
0.0
230
1.0
 70
     8
 71
     3
 72
     8
 73
     4
 74
     0
 42
0.00000001
 43
0.00000001
 40
0.9615384615384611
 40
0.9615384615384611
 40
0.9615384615384611
 40
0.9615384615384611
 40
1.0
 40
1.0
 40
1.0
 40
1.0
 10
26.95500000000006
 20
3.377099999999966
 30
0.0
 10
26.83200000000019
 20
3.46620000000003
 30
0.0
 10
26.75110000000014
 20
3.59270000000006
 30
0.0
 10
26.7130000000001
 20
3.758199999999989
 30
0.0
  0
SPLINE
  5
126
330
76
100
AcDbEntity
  8
LAYER_1
 62
     7
100
AcDbSpline
210
0.0
220
0.0
230
1.0
 70
     8
 71
     3
 72
     8
 73
     4
 74
     0
 42
0.00000001
 43
0.00000001
 40
0.037037037037037
 40
0.037037037037037
 40
0.037037037037037
 40
0.037037037037037
 40
0.0740740740740741
 40
0.0740740740740741
 40
0.0740740740740741
 40
0.0740740740740741
 10
35.94760000000008
 20
4.464699999999988
 30
0.0
 10
35.94760000000008
 20
4.449600000000054
 30
0.0
 10
35.94830000000015
 20
4.427999999999988
 30
0.0
 10
35.94880000000011
 20
4.399700000000006
 30
0.0
  0
SPLINE
  5
127
330
76
100
AcDbEntity
  8
LAYER_1
 62
     7
100
AcDbSpline
210
0.0
220
0.0
230
1.0
 70
     8
 71
     3
 72
     8
 73
     4
 74
     0
 42
0.00000001
 43
0.00000001
 40
0.0740740740740741
 40
0.0740740740740741
 40
0.0740740740740741
 40
0.0740740740740741
 40
0.1111111111111111
 40
0.1111111111111111
 40
0.1111111111111111
 40
0.1111111111111111
 10
35.94880000000011
 20
4.399700000000006
 30
0.0
 10
35.95240000000022
 20
4.326599999999958
 30
0.0
 10
35.9539000000001
 20
4.277399999999987
 30
0.0
 10
35.9539000000001
 20
4.25150000000002
 30
0.0
  0
SPLINE
  5
128
330
76
100
AcDbEntity
  8
LAYER_1
 62
     7
100
AcDbSpline
210
0.0
220
0.0
230
1.0
 70
     8
 71
     3
 72
     8
 73
     4
 74
     0
 42
0.00000001
 43
0.00000001
 40
0.1111111111111111
 40
0.1111111111111111
 40
0.1111111111111111
 40
0.1111111111111111
 40
0.1481481481481481
 40
0.1481481481481481
 40
0.1481481481481481
 40
0.1481481481481481
 10
35.9539000000001
 20
4.25150000000002
 30
0.0
 10
35.9539000000001
 20
3.931999999999991
 30
0.0
 10
35.86250000000013
 20
3.6852
 30
0.0
 10
35.6799000000001
 20
3.508500000000025
 30
0.0
  0
SPLINE
  5
129
330
76
100
AcDbEntity
  8
LAYER_1
 62
     7
100
AcDbSpline
210
0.0
220
0.0
230
1.0
 70
     8
 71
     3
 72
     8
 73
     4
 74
     0
 42
0.00000001
 43
0.00000001
 40
0.1481481481481481
 40
0.1481481481481481
 40
0.1481481481481481
 40
0.1481481481481481
 40
0.1851851851851852
 40
0.1851851851851852
 40
0.1851851851851852
 40
0.1851851851851852
 10
35.6799000000001
 20
3.508500000000025
 30
0.0
 10
35.49720000000023
 20
3.332100000000005
 30
0.0
 10
35.23980000000015
 20
3.243899999999966
 30
0.0
 10
34.9079000000001
 20
3.243899999999966
 30
0.0
  0
SPLINE
  5
12A
330
76
100
AcDbEntity
  8
LAYER_1
 62
     7
100
AcDbSpline
210
0.0
220
0.0
230
1.0
 70
     8
 71
     3
 72
     8
 73
     4
 74
     0
 42
0.00000001
 43
0.00000001
 40
0.1851851851851852
 40
0.1851851851851852
 40
0.1851851851851852
 40
0.1851851851851852
 40
0.2222222222222222
 40
0.2222222222222222
 40
0.2222222222222222
 40
0.2222222222222222
 10
34.9079000000001
 20
3.243899999999966
 30
0.0
 10
34.7219000000002
 20
3.243899999999966
 30
0.0
 10
34.5565000000001
 20
3.271499999999983
 30
0.0
 10
34.41060000000007
 20
3.325999999999996
 30
0.0
  0
SPLINE
  5
12B
330
76
100
AcDbEntity
  8
LAYER_1
 62
     7
100
AcDbSpline
210
0.0
220
0.0
230
1.0
 70
     8
 71
     3
 72
     8
 73
     4
 74
     0
 42
0.00000001
 43
0.00000001
 40
0.2222222222222222
 40
0.2222222222222222
 40
0.2222222222222222
 40
0.2222222222222222
 40
0.2592592592592592
 40
0.2592592592592592
 40
0.2592592592592592
 40
0.2592592592592592
 10
34.41060000000007
 20
3.325999999999996
 30
0.0
 10
34.26560000000012
 20
3.380600000000011
 30
0.0
 10
34.13770000000016
 20
3.463099999999997
 30
0.0
 10
34.02840000000007
 20
3.573300000000001
 30
0.0
  0
SPLINE
  5
12C
330
76
100
AcDbEntity
  8
LAYER_1
 62
     7
100
AcDbSpline
210
0.0
220
0.0
230
1.0
 70
     8
 71
     3
 72
     8
 73
     4
 74
     0
 42
0.00000001
 43
0.00000001
 40
0.2592592592592592
 40
0.2592592592592592
 40
0.2592592592592592
 40
0.2592592592592592
 40
0.2962962962962963
 40
0.2962962962962963
 40
0.2962962962962963
 40
0.2962962962962963
 10
34.02840000000007
 20
3.573300000000001
 30
0.0
 10
33.92100000000009
 20
3.682799999999986
 30
0.0
 10
33.83870000000022
 20
3.811300000000017
 30
0.0
 10
33.78160000000019
 20
3.959299999999999
 30
0.0
  0
SPLINE
  5
12D
330
76
100
AcDbEntity
  8
LAYER_1
 62
     7
100
AcDbSpline
210
0.0
220
0.0
230
1.0
 70
     8
 71
     3
 72
     8
 73
     4
 74
     0
 42
0.00000001
 43
0.00000001
 40
0.2962962962962963
 40
0.2962962962962963
 40
0.2962962962962963
 40
0.2962962962962963
 40
0.3333333333333333
 40
0.3333333333333333
 40
0.3333333333333333
 40
0.3333333333333333
 10
33.78160000000019
 20
3.959299999999999
 30
0.0
 10
33.72430000000015
 20
4.106800000000021
 30
0.0
 10
33.69560000000016
 20
4.26470000000001
 30
0.0
 10
33.69560000000016
 20
4.432600000000009
 30
0.0
  0
SPLINE
  5
12E
330
76
100
AcDbEntity
  8
LAYER_1
 62
     7
100
AcDbSpline
210
0.0
220
0.0
230
1.0
 70
     8
 71
     3
 72
     8
 73
     4
 74
     0
 42
0.00000001
 43
0.00000001
 40
0.3333333333333333
 40
0.3333333333333333
 40
0.3333333333333333
 40
0.3333333333333333
 40
0.3703703703703704
 40
0.3703703703703704
 40
0.3703703703703704
 40
0.3703703703703704
 10
33.69560000000016
 20
4.432600000000009
 30
0.0
 10
33.69560000000016
 20
4.603999999999997
 30
0.0
 10
33.72450000000005
 20
4.761799999999983
 30
0.0
 10
33.78320000000012
 20
4.906200000000027
 30
0.0
  0
SPLINE
  5
12F
330
76
100
AcDbEntity
  8
LAYER_1
 62
     7
100
AcDbSpline
210
0.0
220
0.0
230
1.0
 70
     8
 71
     3
 72
     8
 73
     4
 74
     0
 42
0.00000001
 43
0.00000001
 40
0.3703703703703704
 40
0.3703703703703704
 40
0.3703703703703704
 40
0.3703703703703704
 40
0.4074074074074074
 40
0.4074074074074074
 40
0.4074074074074074
 40
0.4074074074074074
 10
33.78320000000012
 20
4.906200000000027
 30
0.0
 10
33.84170000000009
 20
5.050800000000022
 30
0.0
 10
33.92740000000005
 20
5.178699999999981
 30
0.0
 10
34.04210000000019
 20
5.288899999999986
 30
0.0
  0
SPLINE
  5
130
330
76
100
AcDbEntity
  8
LAYER_1
 62
     7
100
AcDbSpline
210
0.0
220
0.0
230
1.0
 70
     8
 71
     3
 72
     8
 73
     4
 74
     0
 42
0.00000001
 43
0.00000001
 40
0.4074074074074074
 40
0.4074074074074074
 40
0.4074074074074074
 40
0.4074074074074074
 40
0.4444444444444444
 40
0.4444444444444444
 40
0.4444444444444444
 40
0.4444444444444444
 10
34.04210000000019
 20
5.288899999999986
 30
0.0
 10
34.1526000000002
 20
5.396900000000038
 30
0.0
 10
34.28220000000015
 20
5.479600000000029
 30
0.0
 10
34.43110000000016
 20
5.536600000000003
 30
0.0
  0
SPLINE
  5
131
330
76
100
AcDbEntity
  8
LAYER_1
 62
     7
100
AcDbSpline
210
0.0
220
0.0
230
1.0
 70
     8
 71
     3
 72
     8
 73
     4
 74
     0
 42
0.00000001
 43
0.00000001
 40
0.4444444444444444
 40
0.4444444444444444
 40
0.4444444444444444
 40
0.4444444444444444
 40
0.4814814814814815
 40
0.4814814814814815
 40
0.4814814814814815
 40
0.4814814814814815
 10
34.43110000000016
 20
5.536600000000003
 30
0.0
 10
34.5793000000002
 20
5.593200000000021
 30
0.0
 10
34.73890000000013
 20
5.621500000000001
 30
0.0
 10
34.9079000000001
 20
5.621500000000001
 30
0.0
  0
SPLINE
  5
132
330
76
100
AcDbEntity
  8
LAYER_1
 62
     7
100
AcDbSpline
210
0.0
220
0.0
230
1.0
 70
     8
 71
     3
 72
     8
 73
     4
 74
     0
 42
0.00000001
 43
0.00000001
 40
0.4814814814814815
 40
0.4814814814814815
 40
0.4814814814814815
 40
0.4814814814814815
 40
0.5185185185185185
 40
0.5185185185185185
 40
0.5185185185185185
 40
0.5185185185185185
 10
34.9079000000001
 20
5.621500000000001
 30
0.0
 10
35.08620000000007
 20
5.621500000000001
 30
0.0
 10
35.2458000000001
 20
5.588700000000002
 30
0.0
 10
35.38670000000022
 20
5.523900000000026
 30
0.0
  0
SPLINE
  5
133
330
76
100
AcDbEntity
  8
LAYER_1
 62
     7
100
AcDbSpline
210
0.0
220
0.0
230
1.0
 70
     8
 71
     3
 72
     8
 73
     4
 74
     0
 42
0.00000001
 43
0.00000001
 40
0.5185185185185185
 40
0.5185185185185185
 40
0.5185185185185185
 40
0.5185185185185185
 40
0.5555555555555556
 40
0.5555555555555556
 40
0.5555555555555556
 40
0.5555555555555556
 10
35.38670000000022
 20
5.523900000000026
 30
0.0
 10
35.52730000000015
 20
5.458999999999992
 30
0.0
 10
35.6531000000001
 20
5.35960000000002
 30
0.0
 10
35.76400000000013
 20
5.225299999999988
 30
0.0
  0
SPLINE
  5
134
330
76
100
AcDbEntity
  8
LAYER_1
 62
     7
100
AcDbSpline
210
0.0
220
0.0
230
1.0
 70
     8
 71
     3
 72
     8
 73
     4
 74
     0
 42
0.00000001
 43
0.00000001
 40
0.5925925925925926
 40
0.5925925925925926
 40
0.5925925925925926
 40
0.5925925925925926
 40
0.6296296296296295
 40
0.6296296296296295
 40
0.6296296296296295
 40
0.6296296296296295
 10
35.49420000000014
 20
5.022599999999988
 30
0.0
 10
35.41790000000012
 20
5.111100000000035
 30
0.0
 10
35.33130000000006
 20
5.17709999999999
 30
0.0
 10
35.23580000000004
 20
5.220599999999964
 30
0.0
  0
SPLINE
  5
135
330
76
100
AcDbEntity
  8
LAYER_1
 62
     7
100
AcDbSpline
210
0.0
220
0.0
230
1.0
 70
     8
 71
     3
 72
     8
 73
     4
 74
     0
 42
0.00000001
 43
0.00000001
 40
0.6296296296296295
 40
0.6296296296296295
 40
0.6296296296296295
 40
0.6296296296296295
 40
0.6666666666666665
 40
0.6666666666666665
 40
0.6666666666666665
 40
0.6666666666666665
 10
35.23580000000004
 20
5.220599999999964
 30
0.0
 10
35.13950000000021
 20
5.264099999999994
 30
0.0
 10
35.03260000000019
 20
5.285499999999999
 30
0.0
 10
34.9136000000001
 20
5.285499999999999
 30
0.0
  0
SPLINE
  5
136
330
76
100
AcDbEntity
  8
LAYER_1
 62
     7
100
AcDbSpline
210
0.0
220
0.0
230
1.0
 70
     8
 71
     3
 72
     8
 73
     4
 74
     0
 42
0.00000001
 43
0.00000001
 40
0.6666666666666665
 40
0.6666666666666665
 40
0.6666666666666665
 40
0.6666666666666665
 40
0.7037037037037035
 40
0.7037037037037035
 40
0.7037037037037035
 40
0.7037037037037035
 10
34.9136000000001
 20
5.285499999999999
 30
0.0
 10
34.66830000000009
 20
5.285499999999999
 30
0.0
 10
34.46820000000017
 20
5.207000000000017
 30
0.0
 10
34.31270000000008
 20
5.049199999999976
 30
0.0
  0
SPLINE
  5
137
330
76
100
AcDbEntity
  8
LAYER_1
 62
     7
100
AcDbSpline
210
0.0
220
0.0
230
1.0
 70
     8
 71
     3
 72
     8
 73
     4
 74
     0
 42
0.00000001
 43
0.00000001
 40
0.7037037037037035
 40
0.7037037037037035
 40
0.7037037037037035
 40
0.7037037037037035
 40
0.7407407407407405
 40
0.7407407407407405
 40
0.7407407407407405
 40
0.7407407407407405
 10
34.31270000000008
 20
5.049199999999976
 30
0.0
 10
34.15740000000012
 20
4.89210000000001
 30
0.0
 10
34.07940000000009
 20
4.687400000000008
 30
0.0
 10
34.07940000000009
 20
4.436000000000051
 30
0.0
  0
SPLINE
  5
138
330
76
100
AcDbEntity
  8
LAYER_1
 62
     7
100
AcDbSpline
210
0.0
220
0.0
230
1.0
 70
     8
 71
     3
 72
     8
 73
     4
 74
     0
 42
0.00000001
 43
0.00000001
 40
0.7407407407407405
 40
0.7407407407407405
 40
0.7407407407407405
 40
0.7407407407407405
 40
0.7777777777777775
 40
0.7777777777777775
 40
0.7777777777777775
 40
0.7777777777777775
 10
34.07940000000009
 20
4.436000000000051
 30
0.0
 10
34.07940000000009
 20
4.179600000000006
 30
0.0
 10
34.15740000000012
 20
3.971800000000025
 30
0.0
 10
34.31270000000008
 20
3.812700000000002
 30
0.0
  0
SPLINE
  5
139
330
76
100
AcDbEntity
  8
LAYER_1
 62
     7
100
AcDbSpline
210
0.0
220
0.0
230
1.0
 70
     8
 71
     3
 72
     8
 73
     4
 74
     0
 42
0.00000001
 43
0.00000001
 40
0.7777777777777775
 40
0.7777777777777775
 40
0.7777777777777775
 40
0.7777777777777775
 40
0.8148148148148144
 40
0.8148148148148144
 40
0.8148148148148144
 40
0.8148148148148144
 10
34.31270000000008
 20
3.812700000000002
 30
0.0
 10
34.46820000000017
 20
3.653200000000023
 30
0.0
 10
34.66970000000003
 20
3.573300000000001
 30
0.0
 10
34.91710000000015
 20
3.573300000000001
 30
0.0
  0
SPLINE
  5
13A
330
76
100
AcDbEntity
  8
LAYER_1
 62
     7
100
AcDbSpline
210
0.0
220
0.0
230
1.0
 70
     8
 71
     3
 72
     8
 73
     4
 74
     0
 42
0.00000001
 43
0.00000001
 40
0.8148148148148144
 40
0.8148148148148144
 40
0.8148148148148144
 40
0.8148148148148144
 40
0.8518518518518514
 40
0.8518518518518514
 40
0.8518518518518514
 40
0.8518518518518514
 10
34.91710000000015
 20
3.573300000000001
 30
0.0
 10
35.12720000000014
 20
3.573300000000001
 30
0.0
 10
35.29290000000007
 20
3.622400000000026
 30
0.0
 10
35.41340000000015
 20
3.720500000000015
 30
0.0
  0
SPLINE
  5
13B
330
76
100
AcDbEntity
  8
LAYER_1
 62
     7
100
AcDbSpline
210
0.0
220
0.0
230
1.0
 70
     8
 71
     3
 72
     8
 73
     4
 74
     0
 42
0.00000001
 43
0.00000001
 40
0.8518518518518514
 40
0.8518518518518514
 40
0.8518518518518514
 40
0.8518518518518514
 40
0.8888888888888884
 40
0.8888888888888884
 40
0.8888888888888884
 40
0.8888888888888884
 10
35.41340000000015
 20
3.720500000000015
 30
0.0
 10
35.53440000000019
 20
3.818800000000011
 30
0.0
 10
35.59440000000014
 20
3.952000000000011
 30
0.0
 10
35.59440000000014
 20
4.121199999999991
 30
0.0
  0
SPLINE
  5
13C
330
76
100
AcDbEntity
  8
LAYER_1
 62
     7
100
AcDbSpline
210
0.0
220
0.0
230
1.0
 70
     8
 71
     3
 72
     8
 73
     4
 74
     0
 42
0.00000001
 43
0.00000001
 40
0.1666666666666667
 40
0.1666666666666667
 40
0.1666666666666667
 40
0.1666666666666667
 40
0.25
 40
0.25
 40
0.25
 40
0.25
 10
39.93380000000013
 20
4.274499999999959
 30
0.0
 10
39.97310000000009
 20
4.2354
 30
0.0
 10
40.01300000000008
 20
4.193700000000023
 30
0.0
 10
40.05300000000012
 20
4.149600000000031
 30
0.0
  0
SPLINE
  5
13D
330
76
100
AcDbEntity
  8
LAYER_1
 62
     7
100
AcDbSpline
210
0.0
220
0.0
230
1.0
 70
     8
 71
     3
 72
     8
 73
     4
 74
     0
 42
0.00000001
 43
0.00000001
 40
0.25
 40
0.25
 40
0.25
 40
0.25
 40
0.3333333333333333
 40
0.3333333333333333
 40
0.3333333333333333
 40
0.3333333333333333
 10
40.05300000000012
 20
4.149600000000031
 30
0.0
 10
40.0929000000001
 20
4.104899999999967
 30
0.0
 10
40.1355000000001
 20
4.055000000000031
 30
0.0
 10
40.18010000000005
 20
3.99900000000003
 30
0.0
  0
SPLINE
  5
13E
330
76
100
AcDbEntity
  8
LAYER_1
 62
     7
100
AcDbSpline
210
0.0
220
0.0
230
1.0
 70
     8
 71
     3
 72
     8
 73
     4
 74
     0
 42
0.00000001
 43
0.00000001
 40
0.6666666666666666
 40
0.6666666666666666
 40
0.6666666666666666
 40
0.6666666666666666
 40
0.75
 40
0.75
 40
0.75
 40
0.75
 10
39.05170000000013
 20
4.625900000000016
 30
0.0
 10
39.01290000000013
 20
4.664100000000005
 30
0.0
 10
38.97480000000009
 20
4.704399999999998
 30
0.0
 10
38.9383000000002
 20
4.746700000000049
 30
0.0
  0
SPLINE
  5
13F
330
76
100
AcDbEntity
  8
LAYER_1
 62
     7
100
AcDbSpline
210
0.0
220
0.0
230
1.0
 70
     8
 71
     3
 72
     8
 73
     4
 74
     0
 42
0.00000001
 43
0.00000001
 40
0.75
 40
0.75
 40
0.75
 40
0.75
 40
0.8333333333333334
 40
0.8333333333333334
 40
0.8333333333333334
 40
0.8333333333333334
 10
38.9383000000002
 20
4.746700000000049
 30
0.0
 10
38.90090000000013
 20
4.789500000000002
 30
0.0
 10
38.86670000000003
 20
4.833099999999979
 30
0.0
 10
38.83370000000019
 20
4.879599999999984
 30
0.0
  0
SPLINE
  5
140
330
76
100
AcDbEntity
  8
LAYER_1
 62
     7
100
AcDbSpline
210
0.0
220
0.0
230
1.0
 70
     8
 71
     3
 72
     8
 73
     4
 74
     0
 42
0.00000001
 43
0.00000001
 40
0.0
 40
0.0
 40
0.0
 40
0.0
 40
0.0833333333333333
 40
0.0833333333333333
 40
0.0833333333333333
 40
0.0833333333333333
 10
5.737200000000109
 20
5.357399999999957
 30
0.0
 10
4.241100000000109
 20
4.866800000000005
 30
0.0
 10
2.695400000000125
 20
5.614599999999969
 30
0.0
 10
2.157800000000099
 20
7.091999999999987
 30
0.0
  0
SPLINE
  5
141
330
76
100
AcDbEntity
  8
LAYER_1
 62
     7
100
AcDbSpline
210
0.0
220
0.0
230
1.0
 70
     8
 71
     3
 72
     8
 73
     4
 74
     0
 42
0.00000001
 43
0.00000001
 40
0.0833333333333333
 40
0.0833333333333333
 40
0.0833333333333333
 40
0.0833333333333333
 40
0.1666666666666667
 40
0.1666666666666667
 40
0.1666666666666667
 40
0.1666666666666667
 10
2.157800000000099
 20
7.091999999999987
 30
0.0
 10
1.6463000000001
 20
8.496800000000027
 30
0.0
 10
2.307100000000117
 20
10.18670000000005
 30
0.0
 10
3.779500000000158
 20
10.73639999999998
 30
0.0
  0
SPLINE
  5
142
330
76
100
AcDbEntity
  8
LAYER_1
 62
     7
100
AcDbSpline
210
0.0
220
0.0
230
1.0
 70
     8
 71
     3
 72
     8
 73
     4
 74
     0
 42
0.00000001
 43
0.00000001
 40
0.25
 40
0.25
 40
0.25
 40
0.25
 40
0.3333333333333333
 40
0.3333333333333333
 40
0.3333333333333333
 40
0.3333333333333333
 10
7.530900000000118
 20
12.1019
 30
0.0
 10
7.944400000000185
 20
12.25720000000002
 30
0.0
 10
8.218700000000133
 20
12.8028
 30
0.0
 10
8.045600000000096
 20
13.27870000000003
 30
0.0
  0
SPLINE
  5
143
330
76
100
AcDbEntity
  8
LAYER_1
 62
     7
100
AcDbSpline
210
0.0
220
0.0
230
1.0
 70
     8
 71
     3
 72
     8
 73
     4
 74
     0
 42
0.00000001
 43
0.00000001
 40
0.3333333333333333
 40
0.3333333333333333
 40
0.3333333333333333
 40
0.3333333333333333
 40
0.4166666666666666
 40
0.4166666666666666
 40
0.4166666666666666
 40
0.4166666666666666
 10
8.045600000000096
 20
13.27870000000003
 30
0.0
 10
7.890700000000139
 20
13.70359999999998
 30
0.0
 10
7.36950000000014
 20
14.03540000000003
 30
0.0
 10
6.891600000000109
 20
13.85790000000003
 30
0.0
  0
SPLINE
  5
144
330
76
100
AcDbEntity
  8
LAYER_1
 62
     7
100
AcDbSpline
210
0.0
220
0.0
230
1.0
 70
     8
 71
     3
 72
     8
 73
     4
 74
     0
 42
0.00000001
 43
0.00000001
 40
0.4999999999999999
 40
0.4999999999999999
 40
0.4999999999999999
 40
0.4999999999999999
 40
0.5833333333333333
 40
0.5833333333333333
 40
0.5833333333333333
 40
0.5833333333333333
 10
3.140300000000096
 20
12.49250000000002
 30
0.0
 10
0.664800000000132
 20
11.54270000000002
 30
0.0
 10
-0.4249999999998422
 20
8.803200000000011
 30
0.0
 10
0.4250000000001197
 20
6.468099999999977
 30
0.0
  0
SPLINE
  5
145
330
76
100
AcDbEntity
  8
LAYER_1
 62
     7
100
AcDbSpline
210
0.0
220
0.0
230
1.0
 70
     8
 71
     3
 72
     8
 73
     4
 74
     0
 42
0.00000001
 43
0.00000001
 40
0.5833333333333333
 40
0.5833333333333333
 40
0.5833333333333333
 40
0.5833333333333333
 40
0.6666666666666666
 40
0.6666666666666666
 40
0.6666666666666666
 40
0.6666666666666666
 10
0.4250000000001197
 20
6.468099999999977
 30
0.0
 10
1.120600000000138
 20
4.335300000000042
 30
0.0
 10
3.787000000000096
 20
2.687400000000006
 30
0.0
 10
6.376400000000171
 20
3.601400000000032
 30
0.0
  0
SPLINE
  5
146
330
76
100
AcDbEntity
  8
LAYER_1
 62
     7
100
AcDbSpline
210
0.0
220
0.0
230
1.0
 70
     8
 71
     3
 72
     8
 73
     4
 74
     0
 42
0.00000001
 43
0.00000001
 40
0.75
 40
0.75
 40
0.75
 40
0.75
 40
0.8333333333333334
 40
0.8333333333333334
 40
0.8333333333333334
 40
0.8333333333333334
 10
10.12780000000013
 20
4.966699999999991
 30
0.0
 10
10.51560000000007
 20
5.112599999999967
 30
0.0
 10
10.82650000000007
 20
5.636299999999983
 30
0.0
 10
10.65070000000012
 20
6.119900000000012
 30
0.0
  0
SPLINE
  5
147
330
76
100
AcDbEntity
  8
LAYER_1
 62
     7
100
AcDbSpline
210
0.0
220
0.0
230
1.0
 70
     8
 71
     3
 72
     8
 73
     4
 74
     0
 42
0.00000001
 43
0.00000001
 40
0.8333333333333334
 40
0.8333333333333334
 40
0.8333333333333334
 40
0.8333333333333334
 40
0.9166666666666667
 40
0.9166666666666667
 40
0.9166666666666667
 40
0.9166666666666667
 10
10.65070000000012
 20
6.119900000000012
 30
0.0
 10
10.47560000000014
 20
6.600599999999957
 30
0.0
 10
9.979900000000153
 20
6.89690000000004
 30
0.0
 10
9.48860000000007
 20
6.722600000000023
 30
0.0
  0
SPLINE
  5
148
330
76
100
AcDbEntity
  8
LAYER_1
 62
     7
100
AcDbSpline
210
0.0
220
0.0
230
1.0
 70
     8
 71
     3
 72
     8
 73
     4
 74
     0
 42
0.00000001
 43
0.00000001
 40
0.0
 40
0.0
 40
0.0
 40
0.0
 40
0.0833333333333333
 40
0.0833333333333333
 40
0.0833333333333333
 40
0.0833333333333333
 10
8.955500000000116
 20
8.589300000000023
 30
0.0
 10
10.45160000000012
 20
9.07990000000003
 30
0.0
 10
11.9973000000001
 20
8.332000000000006
 30
0.0
 10
12.53490000000013
 20
6.854599999999989
 30
0.0
  0
SPLINE
  5
149
330
76
100
AcDbEntity
  8
LAYER_1
 62
     7
100
AcDbSpline
210
0.0
220
0.0
230
1.0
 70
     8
 71
     3
 72
     8
 73
     4
 74
     0
 42
0.00000001
 43
0.00000001
 40
0.0833333333333333
 40
0.0833333333333333
 40
0.0833333333333333
 40
0.0833333333333333
 40
0.1666666666666667
 40
0.1666666666666667
 40
0.1666666666666667
 40
0.1666666666666667
 10
12.53490000000013
 20
6.854599999999989
 30
0.0
 10
13.04640000000012
 20
5.449700000000002
 30
0.0
 10
12.38560000000011
 20
3.759999999999986
 30
0.0
 10
10.91320000000007
 20
3.210199999999996
 30
0.0
  0
SPLINE
  5
14A
330
76
100
AcDbEntity
  8
LAYER_1
 62
     7
100
AcDbSpline
210
0.0
220
0.0
230
1.0
 70
     8
 71
     3
 72
     8
 73
     4
 74
     0
 42
0.00000001
 43
0.00000001
 40
0.25
 40
0.25
 40
0.25
 40
0.25
 40
0.3333333333333333
 40
0.3333333333333333
 40
0.3333333333333333
 40
0.3333333333333333
 10
7.161800000000107
 20
1.844800000000035
 30
0.0
 10
6.748300000000151
 20
1.68950000000001
 30
0.0
 10
6.474000000000202
 20
1.143799999999973
 30
0.0
 10
6.647100000000128
 20
0.6679000000000546
 30
0.0
  0
SPLINE
  5
14B
330
76
100
AcDbEntity
  8
LAYER_1
 62
     7
100
AcDbSpline
210
0.0
220
0.0
230
1.0
 70
     8
 71
     3
 72
     8
 73
     4
 74
     0
 42
0.00000001
 43
0.00000001
 40
0.3333333333333333
 40
0.3333333333333333
 40
0.3333333333333333
 40
0.3333333333333333
 40
0.4166666666666666
 40
0.4166666666666666
 40
0.4166666666666666
 40
0.4166666666666666
 10
6.647100000000128
 20
0.6679000000000546
 30
0.0
 10
6.802000000000086
 20
0.2430999999999961
 30
0.0
 10
7.323200000000196
 20
-0.0888
 30
0.0
 10
7.801100000000116
 20
0.0888
 30
0.0
  0
SPLINE
  5
14C
330
76
100
AcDbEntity
  8
LAYER_1
 62
     7
100
AcDbSpline
210
0.0
220
0.0
230
1.0
 70
     8
 71
     3
 72
     8
 73
     4
 74
     0
 42
0.00000001
 43
0.00000001
 40
0.4999999999999999
 40
0.4999999999999999
 40
0.4999999999999999
 40
0.4999999999999999
 40
0.5833333333333333
 40
0.5833333333333333
 40
0.5833333333333333
 40
0.5833333333333333
 10
11.55240000000013
 20
1.454200000000017
 30
0.0
 10
14.02790000000009
 20
2.404000000000017
 30
0.0
 10
15.11770000000012
 20
5.143399999999964
 30
0.0
 10
14.2677000000001
 20
7.478499999999999
 30
0.0
  0
SPLINE
  5
14D
330
76
100
AcDbEntity
  8
LAYER_1
 62
     7
100
AcDbSpline
210
0.0
220
0.0
230
1.0
 70
     8
 71
     3
 72
     8
 73
     4
 74
     0
 42
0.00000001
 43
0.00000001
 40
0.5833333333333333
 40
0.5833333333333333
 40
0.5833333333333333
 40
0.5833333333333333
 40
0.6666666666666666
 40
0.6666666666666666
 40
0.6666666666666666
 40
0.6666666666666666
 10
14.2677000000001
 20
7.478499999999999
 30
0.0
 10
13.57210000000009
 20
9.611399999999993
 30
0.0
 10
10.90570000000013
 20
11.25920000000002
 30
0.0
 10
8.316300000000165
 20
10.34520000000006
 30
0.0
  0
SPLINE
  5
14E
330
76
100
AcDbEntity
  8
LAYER_1
 62
     7
100
AcDbSpline
210
0.0
220
0.0
230
1.0
 70
     8
 71
     3
 72
     8
 73
     4
 74
     0
 42
0.00000001
 43
0.00000001
 40
0.75
 40
0.75
 40
0.75
 40
0.75
 40
0.8333333333333334
 40
0.8333333333333334
 40
0.8333333333333334
 40
0.8333333333333334
 10
4.564900000000094
 20
8.979899999999985
 30
0.0
 10
4.177100000000156
 20
8.834100000000012
 30
0.0
 10
3.866200000000153
 20
8.310399999999996
 30
0.0
 10
4.042000000000101
 20
7.826799999999967
 30
0.0
  0
SPLINE
  5
14F
330
76
100
AcDbEntity
  8
LAYER_1
 62
     7
100
AcDbSpline
210
0.0
220
0.0
230
1.0
 70
     8
 71
     3
 72
     8
 73
     4
 74
     0
 42
0.00000001
 43
0.00000001
 40
0.8333333333333334
 40
0.8333333333333334
 40
0.8333333333333334
 40
0.8333333333333334
 40
0.9166666666666667
 40
0.9166666666666667
 40
0.9166666666666667
 40
0.9166666666666667
 10
4.042000000000101
 20
7.826799999999967
 30
0.0
 10
4.217100000000085
 20
7.346100000000022
 30
0.0
 10
4.712800000000072
 20
7.049799999999995
 30
0.0
 10
5.204100000000156
 20
7.224100000000011
 30
0.0
  0
HATCH
  5
150
330
76
100
AcDbEntity
  8
0
  6
CONTINUOUS
 62
     7
100
AcDbHatch
 10
0.0
 20
0.0
 30
0.0
210
0.0
220
0.0
230
1.0
  2
SOLID
 70
     1
 71
     0
 91
        1
 92
        0
 93
       12
 72
     4
 94
        3
 73
     1
 74
     0
 95
        8
 96
        4
 40
0.3333333333333333
 40
0.3333333333333333
 40
0.3333333333333333
 40
0.3333333333333333
 40
0.4166666666666666
 40
0.4166666666666666
 40
0.4166666666666666
 40
0.4166666666666666
 10
8.045600000000096
 20
13.27870000000003
 42
1.0
 10
7.890700000000139
 20
13.70359999999998
 42
1.0
 10
7.36950000000014
 20
14.03540000000003
 42
1.0
 10
6.891600000000109
 20
13.85790000000003
 42
1.0
 72
     1
 10
6.891600000000109
 20
13.85790000000003
 11
3.140300000000096
 21
12.49250000000002
 72
     4
 94
        3
 73
     1
 74
     0
 95
        8
 96
        4
 40
0.4999999999999999
 40
0.4999999999999999
 40
0.4999999999999999
 40
0.4999999999999999
 40
0.5833333333333333
 40
0.5833333333333333
 40
0.5833333333333333
 40
0.5833333333333333
 10
3.140300000000096
 20
12.49250000000002
 42
1.0
 10
0.664800000000132
 20
11.54270000000002
 42
1.0
 10
-0.4249999999998422
 20
8.803200000000011
 42
1.0
 10
0.4250000000001197
 20
6.468099999999977
 42
1.0
 72
     4
 94
        3
 73
     1
 74
     0
 95
        8
 96
        4
 40
0.5833333333333333
 40
0.5833333333333333
 40
0.5833333333333333
 40
0.5833333333333333
 40
0.6666666666666666
 40
0.6666666666666666
 40
0.6666666666666666
 40
0.6666666666666666
 10
0.4250000000001197
 20
6.468099999999977
 42
1.0
 10
1.120600000000138
 20
4.335300000000042
 42
1.0
 10
3.787000000000096
 20
2.687400000000006
 42
1.0
 10
6.376400000000171
 20
3.601400000000032
 42
1.0
 72
     1
 10
6.376400000000171
 20
3.601400000000032
 11
10.12780000000013
 21
4.966699999999991
 72
     4
 94
        3
 73
     1
 74
     0
 95
        8
 96
        4
 40
0.75
 40
0.75
 40
0.75
 40
0.75
 40
0.8333333333333334
 40
0.8333333333333334
 40
0.8333333333333334
 40
0.8333333333333334
 10
10.12780000000013
 20
4.966699999999991
 42
1.0
 10
10.51560000000007
 20
5.112599999999967
 42
1.0
 10
10.82650000000007
 20
5.636299999999983
 42
1.0
 10
10.65070000000012
 20
6.119900000000012
 42
1.0
 72
     4
 94
        3
 73
     1
 74
     0
 95
        8
 96
        4
 40
0.8333333333333334
 40
0.8333333333333334
 40
0.8333333333333334
 40
0.8333333333333334
 40
0.9166666666666667
 40
0.9166666666666667
 40
0.9166666666666667
 40
0.9166666666666667
 10
10.65070000000012
 20
6.119900000000012
 42
1.0
 10
10.47560000000014
 20
6.600599999999957
 42
1.0
 10
9.979900000000153
 20
6.89690000000004
 42
1.0
 10
9.48860000000007
 20
6.722600000000023
 42
1.0
 72
     1
 10
9.48860000000007
 20
6.722600000000023
 11
5.737200000000109
 21
5.357399999999957
 72
     4
 94
        3
 73
     1
 74
     0
 95
        8
 96
        4
 40
0.0
 40
0.0
 40
0.0
 40
0.0
 40
0.0833333333333333
 40
0.0833333333333333
 40
0.0833333333333333
 40
0.0833333333333333
 10
5.737200000000109
 20
5.357399999999957
 42
1.0
 10
4.241100000000109
 20
4.866800000000005
 42
1.0
 10
2.695400000000125
 20
5.614599999999969
 42
1.0
 10
2.157800000000099
 20
7.091999999999987
 42
1.0
 72
     4
 94
        3
 73
     1
 74
     0
 95
        8
 96
        4
 40
0.0833333333333333
 40
0.0833333333333333
 40
0.0833333333333333
 40
0.0833333333333333
 40
0.1666666666666667
 40
0.1666666666666667
 40
0.1666666666666667
 40
0.1666666666666667
 10
2.157800000000099
 20
7.091999999999987
 42
1.0
 10
1.6463000000001
 20
8.496800000000027
 42
1.0
 10
2.307100000000117
 20
10.18670000000005
 42
1.0
 10
3.779500000000158
 20
10.73639999999998
 42
1.0
 72
     1
 10
3.779500000000158
 20
10.73639999999998
 11
7.530900000000118
 21
12.1019
 72
     4
 94
        3
 73
     1
 74
     0
 95
        8
 96
        4
 40
0.25
 40
0.25
 40
0.25
 40
0.25
 40
0.3333333333333333
 40
0.3333333333333333
 40
0.3333333333333333
 40
0.3333333333333333
 10
7.530900000000118
 20
12.1019
 42
1.0
 10
7.944400000000185
 20
12.25720000000002
 42
1.0
 10
8.218700000000133
 20
12.8028
 42
1.0
 10
8.045600000000096
 20
13.27870000000003
 42
1.0
 97
        0
 75
     0
 76
     1
 98
        1
 10
0.0
 20
0.0
  0
HATCH
  5
151
330
76
100
AcDbEntity
  8
0
  6
CONTINUOUS
 62
     7
100
AcDbHatch
 10
0.0
 20
0.0
 30
0.0
210
0.0
220
0.0
230
1.0
  2
SOLID
 70
     1
 71
     0
 91
        1
 92
        0
 93
       12
 72
     4
 94
        3
 73
     1
 74
     0
 95
        8
 96
        4
 40
0.25
 40
0.25
 40
0.25
 40
0.25
 40
0.3333333333333333
 40
0.3333333333333333
 40
0.3333333333333333
 40
0.3333333333333333
 10
7.161800000000107
 20
1.844800000000035
 42
1.0
 10
6.748300000000151
 20
1.68950000000001
 42
1.0
 10
6.474000000000202
 20
1.143799999999973
 42
1.0
 10
6.647100000000128
 20
0.6679000000000546
 42
1.0
 72
     4
 94
        3
 73
     1
 74
     0
 95
        8
 96
        4
 40
0.3333333333333333
 40
0.3333333333333333
 40
0.3333333333333333
 40
0.3333333333333333
 40
0.4166666666666666
 40
0.4166666666666666
 40
0.4166666666666666
 40
0.4166666666666666
 10
6.647100000000128
 20
0.6679000000000546
 42
1.0
 10
6.802000000000086
 20
0.2430999999999961
 42
1.0
 10
7.323200000000196
 20
-0.0888
 42
1.0
 10
7.801100000000116
 20
0.0888
 42
1.0
 72
     1
 10
7.801100000000116
 20
0.0888
 11
11.55240000000013
 21
1.454200000000017
 72
     4
 94
        3
 73
     1
 74
     0
 95
        8
 96
        4
 40
0.4999999999999999
 40
0.4999999999999999
 40
0.4999999999999999
 40
0.4999999999999999
 40
0.5833333333333333
 40
0.5833333333333333
 40
0.5833333333333333
 40
0.5833333333333333
 10
11.55240000000013
 20
1.454200000000017
 42
1.0
 10
14.02790000000009
 20
2.404000000000017
 42
1.0
 10
15.11770000000012
 20
5.143399999999964
 42
1.0
 10
14.2677000000001
 20
7.478499999999999
 42
1.0
 72
     4
 94
        3
 73
     1
 74
     0
 95
        8
 96
        4
 40
0.5833333333333333
 40
0.5833333333333333
 40
0.5833333333333333
 40
0.5833333333333333
 40
0.6666666666666666
 40
0.6666666666666666
 40
0.6666666666666666
 40
0.6666666666666666
 10
14.2677000000001
 20
7.478499999999999
 42
1.0
 10
13.57210000000009
 20
9.611399999999993
 42
1.0
 10
10.90570000000013
 20
11.25920000000002
 42
1.0
 10
8.316300000000165
 20
10.34520000000006
 42
1.0
 72
     1
 10
8.316300000000165
 20
10.34520000000006
 11
4.564900000000094
 21
8.979899999999985
 72
     4
 94
        3
 73
     1
 74
     0
 95
        8
 96
        4
 40
0.75
 40
0.75
 40
0.75
 40
0.75
 40
0.8333333333333334
 40
0.8333333333333334
 40
0.8333333333333334
 40
0.8333333333333334
 10
4.564900000000094
 20
8.979899999999985
 42
1.0
 10
4.177100000000156
 20
8.834100000000012
 42
1.0
 10
3.866200000000153
 20
8.310399999999996
 42
1.0
 10
4.042000000000101
 20
7.826799999999967
 42
1.0
 72
     4
 94
        3
 73
     1
 74
     0
 95
        8
 96
        4
 40
0.8333333333333334
 40
0.8333333333333334
 40
0.8333333333333334
 40
0.8333333333333334
 40
0.9166666666666667
 40
0.9166666666666667
 40
0.9166666666666667
 40
0.9166666666666667
 10
4.042000000000101
 20
7.826799999999967
 42
1.0
 10
4.217100000000085
 20
7.346100000000022
 42
1.0
 10
4.712800000000072
 20
7.049799999999995
 42
1.0
 10
5.204100000000156
 20
7.224100000000011
 42
1.0
 72
     1
 10
5.204100000000156
 20
7.224100000000011
 11
8.955500000000116
 21
8.589300000000023
 72
     4
 94
        3
 73
     1
 74
     0
 95
        8
 96
        4
 40
0.0
 40
0.0
 40
0.0
 40
0.0
 40
0.0833333333333333
 40
0.0833333333333333
 40
0.0833333333333333
 40
0.0833333333333333
 10
8.955500000000116
 20
8.589300000000023
 42
1.0
 10
10.45160000000012
 20
9.07990000000003
 42
1.0
 10
11.9973000000001
 20
8.332000000000006
 42
1.0
 10
12.53490000000013
 20
6.854599999999989
 42
1.0
 72
     4
 94
        3
 73
     1
 74
     0
 95
        8
 96
        4
 40
0.0833333333333333
 40
0.0833333333333333
 40
0.0833333333333333
 40
0.0833333333333333
 40
0.1666666666666667
 40
0.1666666666666667
 40
0.1666666666666667
 40
0.1666666666666667
 10
12.53490000000013
 20
6.854599999999989
 42
1.0
 10
13.04640000000012
 20
5.449700000000002
 42
1.0
 10
12.38560000000011
 20
3.759999999999986
 42
1.0
 10
10.91320000000007
 20
3.210199999999996
 42
1.0
 72
     1
 10
10.91320000000007
 20
3.210199999999996
 11
7.161800000000107
 21
1.844800000000035
 97
        0
 75
     0
 76
     1
 98
        1
 10
0.0
 20
0.0
  0
INSERT
  5
159
330
76
100
AcDbEntity
  8
SLD-0
 62
     7
100
AcDbBlockReference
  2
SW_NOTE_0_2
 10
96.7890214788
 20
11.0984873356
 30
0.0
  0
INSERT
  5
161
330
76
100
AcDbEntity
  8
SLD-0
 62
     7
100
AcDbBlockReference
  2
SW_NOTE_0_3
 10
67.6105655646
 20
11.1074362997
 30
0.0
  0
ENDBLK
  5
78
330
76
100
AcDbEntity
  8
0
100
AcDbBlockEnd
  0
BLOCK
  5
153
330
152
100
AcDbEntity
  8
0
100
AcDbBlockBegin
  2
SW_NOTE_0_2
 70
     0
 10
0.0
 20
0.0
 30
0.0
  3
SW_NOTE_0_2
  1

  0
MTEXT
  5
155
330
152
100
AcDbEntity
  8
SLD-0
 62
     0
100
AcDbMText
 10
0.0
 20
1.9336016097
 30
0.0
 40
1.5
 41
0.0
 71
     1
 72
     1
  1
Suite 4/1693A Burwood Hwy
  7
SLDTEXTSTYLE1
  0
MTEXT
  5
156
330
152
100
AcDbEntity
  8
SLD-0
 62
     0
100
AcDbMText
 10
0.0
 20
-0.5563984911
 30
0.0
 40
1.5
 41
0.0
 71
     1
 72
     1
  1
Belgrave
  7
SLDTEXTSTYLE1
  0
MTEXT
  5
157
330
152
100
AcDbEntity
  8
SLD-0
 62
     0
100
AcDbMText
 10
0.0
 20
-3.046398592
 30
0.0
 40
1.5
 41
0.0
 71
     1
 72
     1
  1
VIC  3160
  7
SLDTEXTSTYLE1
  0
MTEXT
  5
158
330
152
100
AcDbEntity
  8
SLD-0
 62
     0
100
AcDbMText
 10
0.0
 20
-5.5363986928
 30
0.0
 40
1.5
 41
0.0
 71
     1
 72
     1
  1
AUSTRALIA
  7
SLDTEXTSTYLE1
  0
ENDBLK
  5
154
330
152
100
AcDbEntity
  8
0
100
AcDbBlockEnd
  0
BLOCK
  5
15B
330
15A
100
AcDbEntity
  8
0
100
AcDbBlockBegin
  2
SW_NOTE_0_3
 70
     0
 10
0.0
 20
0.0
 30
0.0
  3
SW_NOTE_0_3
  1

  0
MTEXT
  5
15D
330
15A
100
AcDbEntity
  8
SLD-0
 62
     0
100
AcDbMText
 10
0.0
 20
1.9336016097
 30
0.0
 40
1.5
 41
0.0
 71
     1
 72
     1
  1
p: 03 9754 7176
  7
SLDTEXTSTYLE1
  0
MTEXT
  5
15E
330
15A
100
AcDbEntity
  8
SLD-0
 62
     0
100
AcDbMText
 10
0.0
 20
-0.5563984911
 30
0.0
 40
1.5
 41
0.0
 71
     1
 72
     1
  1
m: 0418 578 421
  7
SLDTEXTSTYLE1
  0
MTEXT
  5
15F
330
15A
100
AcDbEntity
  8
SLD-0
 62
     0
100
AcDbMText
 10
0.0
 20
-3.046398592
 30
0.0
 40
1.5
 41
0.0
 71
     1
 72
     1
  1
w: scad.com.au
  7
SLDTEXTSTYLE1
  0
MTEXT
  5
160
330
15A
100
AcDbEntity
  8
SLD-0
 62
     0
100
AcDbMText
 10
0.0
 20
-5.5363986928
 30
0.0
 40
1.5
 41
0.0
 71
     1
 72
     1
  1
e: design@scad.com.au
  7
SLDTEXTSTYLE1
  0
ENDBLK
  5
15C
330
15A
100
AcDbEntity
  8
0
100
AcDbBlockEnd
  0
BLOCK
  5
16B
330
16A
100
AcDbEntity
  8
0
100
AcDbBlockBegin
  2
SW_CENTERMARKSYMBOL_0
 70
     0
 10
0.0
 20
0.0
 30
0.0
  3
SW_CENTERMARKSYMBOL_0
  1

  0
LINE
  5
16D
330
16A
100
AcDbEntity
  8
0
  6
CONTINUOUS
 62
     0
100
AcDbLine
 10
0.0
 20
0.0
 30
0.0
 11
0.0
 21
2.5
 31
0.0
  0
LINE
  5
16E
330
16A
100
AcDbEntity
  8
0
  6
CONTINUOUS
 62
     0
100
AcDbLine
 10
0.0
 20
0.0
 30
0.0
 11
-2.5
 21
0.0
 31
0.0
  0
LINE
  5
16F
330
16A
100
AcDbEntity
  8
0
  6
CONTINUOUS
 62
     0
100
AcDbLine
 10
0.0
 20
0.0
 30
0.0
 11
0.0
 21
-2.5
 31
0.0
  0
LINE
  5
170
330
16A
100
AcDbEntity
  8
0
  6
CONTINUOUS
 62
     0
100
AcDbLine
 10
0.0
 20
0.0
 30
0.0
 11
2.5
 21
0.0
 31
0.0
  0
LINE
  5
171
330
16A
100
AcDbEntity
  8
0
  6
CONTINUOUS
 62
     0
100
AcDbLine
 10
0.0
 20
2.5
 30
0.0
 11
0.0
 21
3.9
 31
0.0
  0
LINE
  5
172
330
16A
100
AcDbEntity
  8
0
  6
CONTINUOUS
 62
     0
100
AcDbLine
 10
-2.5
 20
0.0
 30
0.0
 11
-3.9
 21
0.0
 31
0.0
  0
LINE
  5
173
330
16A
100
AcDbEntity
  8
0
  6
CONTINUOUS
 62
     0
100
AcDbLine
 10
0.0
 20
-2.5
 30
0.0
 11
0.0
 21
-3.9
 31
0.0
  0
LINE
  5
174
330
16A
100
AcDbEntity
  8
0
  6
CONTINUOUS
 62
     0
100
AcDbLine
 10
2.5
 20
0.0
 30
0.0
 11
3.9
 21
0.0
 31
0.0
  0
ENDBLK
  5
16C
330
16A
100
AcDbEntity
  8
0
100
AcDbBlockEnd
  0
BLOCK
  5
177
330
176
100
AcDbEntity
  8
0
100
AcDbBlockBegin
  2
SW_CENTERMARKSYMBOL_1
 70
     0
 10
0.0
 20
0.0
 30
0.0
  3
SW_CENTERMARKSYMBOL_1
  1

  0
LINE
  5
179
330
176
100
AcDbEntity
  8
0
  6
CONTINUOUS
 62
     0
100
AcDbLine
 10
0.0
 20
0.0
 30
0.0
 11
0.0
 21
2.5
 31
0.0
  0
LINE
  5
17A
330
176
100
AcDbEntity
  8
0
  6
CONTINUOUS
 62
     0
100
AcDbLine
 10
0.0
 20
0.0
 30
0.0
 11
-2.5
 21
0.0
 31
0.0
  0
LINE
  5
17B
330
176
100
AcDbEntity
  8
0
  6
CONTINUOUS
 62
     0
100
AcDbLine
 10
0.0
 20
0.0
 30
0.0
 11
0.0
 21
-2.5
 31
0.0
  0
LINE
  5
17C
330
176
100
AcDbEntity
  8
0
  6
CONTINUOUS
 62
     0
100
AcDbLine
 10
0.0
 20
0.0
 30
0.0
 11
2.5
 21
0.0
 31
0.0
  0
LINE
  5
17D
330
176
100
AcDbEntity
  8
0
  6
CONTINUOUS
 62
     0
100
AcDbLine
 10
0.0
 20
2.5
 30
0.0
 11
0.0
 21
3.9
 31
0.0
  0
LINE
  5
17E
330
176
100
AcDbEntity
  8
0
  6
CONTINUOUS
 62
     0
100
AcDbLine
 10
-2.5
 20
0.0
 30
0.0
 11
-3.9
 21
0.0
 31
0.0
  0
LINE
  5
17F
330
176
100
AcDbEntity
  8
0
  6
CONTINUOUS
 62
     0
100
AcDbLine
 10
0.0
 20
-2.5
 30
0.0
 11
0.0
 21
-3.9
 31
0.0
  0
LINE
  5
180
330
176
100
AcDbEntity
  8
0
  6
CONTINUOUS
 62
     0
100
AcDbLine
 10
2.5
 20
0.0
 30
0.0
 11
3.9
 21
0.0
 31
0.0
  0
ENDBLK
  5
178
330
176
100
AcDbEntity
  8
0
100
AcDbBlockEnd
  0
BLOCK
  5
183
330
182
100
AcDbEntity
  8
0
100
AcDbBlockBegin
  2
SW_CENTERMARKSYMBOL_2
 70
     0
 10
0.0
 20
0.0
 30
0.0
  3
SW_CENTERMARKSYMBOL_2
  1

  0
LINE
  5
185
330
182
100
AcDbEntity
  8
0
  6
CONTINUOUS
 62
     0
100
AcDbLine
 10
0.0
 20
0.0
 30
0.0
 11
0.0
 21
2.5
 31
0.0
  0
LINE
  5
186
330
182
100
AcDbEntity
  8
0
  6
CONTINUOUS
 62
     0
100
AcDbLine
 10
0.0
 20
0.0
 30
0.0
 11
-2.5
 21
0.0
 31
0.0
  0
LINE
  5
187
330
182
100
AcDbEntity
  8
0
  6
CONTINUOUS
 62
     0
100
AcDbLine
 10
0.0
 20
0.0
 30
0.0
 11
0.0
 21
-2.5
 31
0.0
  0
LINE
  5
188
330
182
100
AcDbEntity
  8
0
  6
CONTINUOUS
 62
     0
100
AcDbLine
 10
0.0
 20
0.0
 30
0.0
 11
2.5
 21
0.0
 31
0.0
  0
LINE
  5
189
330
182
100
AcDbEntity
  8
0
  6
CONTINUOUS
 62
     0
100
AcDbLine
 10
0.0
 20
2.5
 30
0.0
 11
0.0
 21
3.9
 31
0.0
  0
LINE
  5
18A
330
182
100
AcDbEntity
  8
0
  6
CONTINUOUS
 62
     0
100
AcDbLine
 10
-2.5
 20
0.0
 30
0.0
 11
-3.9
 21
0.0
 31
0.0
  0
LINE
  5
18B
330
182
100
AcDbEntity
  8
0
  6
CONTINUOUS
 62
     0
100
AcDbLine
 10
0.0
 20
-2.5
 30
0.0
 11
0.0
 21
-3.9
 31
0.0
  0
LINE
  5
18C
330
182
100
AcDbEntity
  8
0
  6
CONTINUOUS
 62
     0
100
AcDbLine
 10
2.5
 20
0.0
 30
0.0
 11
3.9
 21
0.0
 31
0.0
  0
ENDBLK
  5
184
330
182
100
AcDbEntity
  8
0
100
AcDbBlockEnd
  0
BLOCK
  5
18F
330
18E
100
AcDbEntity
  8
0
100
AcDbBlockBegin
  2
SW_CENTERMARKSYMBOL_3
 70
     0
 10
0.0
 20
0.0
 30
0.0
  3
SW_CENTERMARKSYMBOL_3
  1

  0
LINE
  5
191
330
18E
100
AcDbEntity
  8
0
  6
CONTINUOUS
 62
     0
100
AcDbLine
 10
0.0
 20
0.0
 30
0.0
 11
0.0
 21
2.5
 31
0.0
  0
LINE
  5
192
330
18E
100
AcDbEntity
  8
0
  6
CONTINUOUS
 62
     0
100
AcDbLine
 10
0.0
 20
0.0
 30
0.0
 11
-2.5
 21
0.0
 31
0.0
  0
LINE
  5
193
330
18E
100
AcDbEntity
  8
0
  6
CONTINUOUS
 62
     0
100
AcDbLine
 10
0.0
 20
0.0
 30
0.0
 11
0.0
 21
-2.5
 31
0.0
  0
LINE
  5
194
330
18E
100
AcDbEntity
  8
0
  6
CONTINUOUS
 62
     0
100
AcDbLine
 10
0.0
 20
0.0
 30
0.0
 11
2.5
 21
0.0
 31
0.0
  0
LINE
  5
195
330
18E
100
AcDbEntity
  8
0
  6
CONTINUOUS
 62
     0
100
AcDbLine
 10
0.0
 20
2.5
 30
0.0
 11
0.0
 21
3.9
 31
0.0
  0
LINE
  5
196
330
18E
100
AcDbEntity
  8
0
  6
CONTINUOUS
 62
     0
100
AcDbLine
 10
-2.5
 20
0.0
 30
0.0
 11
-3.9
 21
0.0
 31
0.0
  0
LINE
  5
197
330
18E
100
AcDbEntity
  8
0
  6
CONTINUOUS
 62
     0
100
AcDbLine
 10
0.0
 20
-2.5
 30
0.0
 11
0.0
 21
-3.9
 31
0.0
  0
LINE
  5
198
330
18E
100
AcDbEntity
  8
0
  6
CONTINUOUS
 62
     0
100
AcDbLine
 10
2.5
 20
0.0
 30
0.0
 11
3.9
 21
0.0
 31
0.0
  0
ENDBLK
  5
190
330
18E
100
AcDbEntity
  8
0
100
AcDbBlockEnd
  0
ENDSEC
  0
SECTION
  2
ENTITIES
  0
CIRCLE
  5
162
330
1F
100
AcDbEntity
  8
0
  6
CONTINUOUS
 62
     7
100
AcDbCircle
 10
175.3332742279
 20
145.727439017
 30
0.0
 40
1.399999999999977
  0
CIRCLE
  5
163
330
1F
100
AcDbEntity
  8
0
  6
CONTINUOUS
 62
     7
100
AcDbCircle
 10
112.3332742279
 20
63.727439017
 30
0.0
 40
1.399999999999991
  0
ARC
  5
164
330
1F
100
AcDbEntity
  8
0
  6
CONTINUOUS
 62
     7
100
AcDbCircle
 10
143.8332742279
 20
97.727439017
 30
0.0
 40
34.0
100
AcDbArc
 50
180.0
 51
0.0
  0
LINE
  5
165
330
1F
100
AcDbEntity
  8
0
  6
CONTINUOUS
 62
     7
100
AcDbLine
 10
177.8332742279
 20
97.727439017
 30
0.0
 11
177.8332742279
 21
117.727439017
 31
0.0
  0
ARC
  5
166
330
1F
100
AcDbEntity
  8
0
  6
CONTINUOUS
 62
     7
100
AcDbCircle
 10
143.8332742279
 20
117.727439017
 30
0.0
 40
34.0
100
AcDbArc
 50
0.0
 51
180.0
  0
LINE
  5
167
330
1F
100
AcDbEntity
  8
0
  6
CONTINUOUS
 62
     7
100
AcDbLine
 10
109.8332742279
 20
117.727439017
 30
0.0
 11
109.8332742279
 21
97.727439017
 31
0.0
  0
CIRCLE
  5
168
330
1F
100
AcDbEntity
  8
0
  6
CONTINUOUS
 62
     7
100
AcDbCircle
 10
175.3332742279
 20
63.727439017
 30
0.0
 40
1.399999999999977
  0
CIRCLE
  5
169
330
1F
100
AcDbEntity
  8
0
  6
CONTINUOUS
 62
     7
100
AcDbCircle
 10
112.3332742279
 20
145.727439017
 30
0.0
 40
1.399999999999991
  0
INSERT
  5
175
330
1F
100
AcDbEntity
  8
0
  6
CONTINUOUS
 62
     7
100
AcDbBlockReference
  2
SW_CENTERMARKSYMBOL_0
 10
175.3332742279
 20
63.727439017
 30
0.0
  0
INSERT
  5
181
330
1F
100
AcDbEntity
  8
0
  6
CONTINUOUS
 62
     7
100
AcDbBlockReference
  2
SW_CENTERMARKSYMBOL_1
 10
112.3332742279
 20
63.727439017
 30
0.0
  0
INSERT
  5
18D
330
1F
100
AcDbEntity
  8
0
  6
CONTINUOUS
 62
     7
100
AcDbBlockReference
  2
SW_CENTERMARKSYMBOL_2
 10
112.3332742279
 20
145.727439017
 30
0.0
  0
INSERT
  5
199
330
1F
100
AcDbEntity
  8
0
  6
CONTINUOUS
 62
     7
100
AcDbBlockReference
  2
SW_CENTERMARKSYMBOL_3
 10
175.3332742279
 20
145.727439017
 30
0.0
  0
ENDSEC
  0
SECTION
  2
OBJECTS
  0
DICTIONARY
  5
C
330
0
100
AcDbDictionary
  3
ACAD_GROUP
350
D
  3
ACAD_MLINESTYLE
350
17
  3
ACAD_SCALELIST
350
47
  3
DWGPROPS
350
19A
  0
DICTIONARY
  5
D
102
{ACAD_REACTORS
330
C
102
}
330
C
100
AcDbDictionary
  0
DICTIONARY
  5
17
102
{ACAD_REACTORS
330
C
102
}
330
C
100
AcDbDictionary
  3
STANDARD
350
18
  0
DICTIONARY
  5
47
102
{ACAD_REACTORS
330
C
102
}
330
C
100
AcDbDictionary
  0
XRECORD
  5
19A
102
{ACAD_REACTORS
330
C
102
}
330
C
100
AcDbXrecord
  1
DWGPROPS COOKIE
  2

  3

  4

  6

  7

  8
John2
  9

300
=
301
=
302
=
303
=
304
=
305
=
306
=
307
=
308
=
309
=
 40
0.0
 41
2460095.17289919
 42
2460095.172899977
  1

 90
        0
  0
MLINESTYLE
  5
18
102
{ACAD_REACTORS
330
17
102
}
330
17
100
AcDbMlineStyle
  2
Standard
 70
     0
  3

 62
   256
 51
90.0
 52
90.0
 71
     2
 49
0.5
 62
   256
  6
BYLAYER
 49
-0.5
 62
   256
  6
BYLAYER
  0
ENDSEC
  0
EOF
